Oops, an error
Loading. Please wait.
We have an official Go With The Flow tab made by UG professional guitarists. Check out the tab »
×
238,481 views 291 this week
23 commentsread comments
1 2 3 4 5
x 53
add to favorites
×
Save as Personal and add changes to this tab that will be seen only by you. Learn more ›
×
You can save this tab as Personal to edit and correct it or add notes. All changes will be seen only by you. Learn more »
launch autoscroll
font size
0
reset
how to read this tab
guitar tuner
backing track
0:00
0:00
edit
Autoscroll
slow
fast
+/-
esc
set tempo
stop
Author
-----------------------------------------------------------------------------
     Go With the Flow - Queens of the Stone Age
-----------------------------------------------------------------------------
Tabbed by: AudaciousMoose
Email: Desule@hotmail.com

Tuning: C F Bb Eb G c (You can play this tab in E A D G B e if you want)

This is my first tab...but it should be dead on.  I tried to position the lyrics so that 

the notes and the lyrics come in the order they come in in the song.  This is an awesome 

riff.  The lead guitar looks difficult, but it is fairly easy.  

-----------------------------------------------------------------------------

Riff for Rhythm Guitar:

c |-----------------------------------------------------------------|
G |-----------------------------------------------------------------|
Eb|----------------------------------9-9-9-9-9-9-9-9-6-6-6-6-6-6-6-6|
Bb|--6-6-6-6-6-6-6-6-6-6-6-6-6-6-6-6-9-9-9-9-9-9-9-9-6-6-6-6-6-6-6-6|
F |--6-6-6-6-6-6-6-6-6-6-6-6-6-6-6-6-7-7-7-7-7-7-7-7-4-4-4-4-4-4-4-4|
C |--4-4-4-4-4-4-4-4-4-4-4-4-4-4-4-4--------------------------------|

Surprisingly, the Rhythm Guitar's riff stays the same throughout the song.

-----------------------------------------------------------------------------

[Verse] for Lead Guitar:

c |------------19------------------------------|
G |--------21-------21----16~---16-17-19-17--16|
Eb|--16/18-------------------------------------|
Bb|--------------------------------------------|
F |--------------------------------------------|
C |--------------------------------------------|

c |-----------18-18b19--18-16-21b23\|
G |--------21-----------------------|
Eb|--16/18--------------------------|
Bb|---------------------------------|
F |---------------------------------|
C |---------------------------------|

   "She said 'I'll throw myself away."
c |---------------------------------------------------------|
G |------------------------------------------16-17-19-17--16|
Eb|---------------------------------------------------------|
Bb|---------------------------------------------------------|
F |---------------------------------------------------------|
C |---------------------------------------------------------|

   "They're just photos after all.'
          I can't make you hang around."
c |--19---------------------------16-----|
G |---------------16---------------------|
Eb|--------------------------------------|
Bb|--------------------------------------|
F |--------------------------------------|
C |--------------------------------------|

   "I can't wash you off my skin.
         Outside the frame  .   .   .  is what we're leavin' out."
c |----------------------------------------------------------------|
G |--17-----------------------------16-----------------------------|
Eb|-------------------18-------------------------------------------|
Bb|----------------------------------------------------------------|
F |----------------------------------------------------------------|
C |----------------------------------------------------------------|

"You won't remember anyway."

-----------------------------------------------------------------------------

[Chorus] for Lead Guitar:

   I can go     .            .          .     with the flow."
c |---------19--(16)--(19)-------14--(11)--(14)------------------|
G |--------(16)-(16)--(16)------(11)-(11)--(11)----------------16|
Eb|---------16--(16)--(16)-------11--(11)--(11)----------------13|
Bb|--------------------------------------------------------------|
F |--------------------------------------------------------------|
C |--------------------------------------------------------------|

*Notes in parentheses are optional.  You can just let first octave ring if you prefer that.
 
Repeat these chords throughout chorus.

Other lyrics for chorus:


"But don't say it doesn't matter anymore.
I can go with the flow.
Do you believe it in your head?"


-----------------------------------------------------------------------------

[Verse] for Lead Guitar:

   "It's so safe to play along."
c |-------------------------------------------------------------|
G |--------------------------------------16----16---13---(9)pb12|
Eb|-----------------------------------13----13------------------|
Bb|-------------------------------------------------------------|
F |-------------------------------------------------------------|
C |-------------------------------------------------------------|

         "Little soldiers in a row."
c |----------------------------------|
G |--(9)pb12---(9)pb12r11---(9)pb11r9|
Eb|----------------------------------|
Bb|----------------------------------|
F |----------------------------------|
C |----------------------------------|

   "Falling in and out of love.
       With somethin' sweet to throw away."
c |--19------------------------------------(15)pb16r15-----------------------|
G |--------------------------16-------------------------15b16----------------|
Eb|---------------------------------------------------13-----13--------------|
Bb|-------------------------------------------------------------16-13--------|
F |------------------------------------------------------------------16------|
C |---------------------------------------------------------------------14--16|

   "I want somethin' good to die for."
c |----------------------------------------------------------------|
G |----------------------------------------------------------------|
Eb|-------------------------------------(13)pb15r13----------------|
Bb|----------------------------------------------------------------|
F |----------------------------------------------------------------|
C |----------------------------------------------------------------|

   "To make it beautiful to live.
   I want a new mistake, lose is more than hesitate.
         Do you believe it in your head?"
c |--19*-----------------------------------------------------------|
G |----------(22)pb23*--------------(21)**-------------------------|
Eb|----------------------------------------------------------------|
Bb|----------------------------------------------------------------|
F |----------------------------------------------------------------|
C |----------------------------------------------------------------|

*These notes must ring at the same time, so you have to play the second note on the G 

string with the bend.

**This note is optional.

-----------------------------------------------------------------------------

Chorus for Lead Guitar:

   I can go     .            .          .     with the flow."
c |---------19--(16)--(19)-------14--(11)--(14)------------------|
G |--------(16)-(16)--(16)------(11)-(11)--(11)----------------16|
Eb|---------16--(16)--(16)-------11--(11)--(11)----------------13|
Bb|--------------------------------------------------------------|
F |--------------------------------------------------------------|
C |--------------------------------------------------------------|

*Notes in parentheses are optional.  You can just let first octave ring if you prefer that.
 
Repeat these chords throughout chorus.

Other lyrics for chorus:


"But don't say it doesn't matter anymore.
I can go with the flow.
Do you believe it in your head?"
-----------------------------------------------------------------------------

[Outro] for Lead Guitar:

c |---------19--(16)--(19)-------21--(19)--(21)---------------20--(20)--(20)|
G |--------(16)-(16)--(16)------(18)-(18)--(18)--------------(16)-(16)--(16)|
Eb|---------16--(16)--(16)-------18--(18)--(18)---------------17--(17)--(17)|
Bb|-------------------------------------------------------------------------|
F |-------------------------------------------------------------------------|
C |-------------------------------------------------------------------------|

The outro has the same rhythm as the chorus.

*Notes in parentheses are optional.  You can just let first octave ring if you prefer that.
-----------------------------------------------------------------------------

Ending Chords for Lead Guitar:

c |---------19--(16)--(19)-------21--(19)--(21)------------22b23|
G |--------(16)-(16)--(16)------(18)-(18)--(18)-----------------|
Eb|---------16--(16)--(16)-------18--(18)--(18)-----------------|
Bb|-------------------------------------------------------------|
F |-------------------------------------------------------------|
C |-------------------------------------------------------------|

-----------------------------------------------------------------------------

Alternate Way of Playing Chorus for Lead Guitar:

   I can go     .            .          .     with the flow."
c |---------19--(16)--(19)-------14--(11)--(14)---------------16--(14)--(16)|
G |--------(16)-(16)--(16)------(11)-(11)--(11)--------------(13)-(13)--(13)|
Eb|---------16--(16)--(16)-------11--(11)--(11)---------------13--(13)--(13)|
Bb|-------------------------------------------------------------------------|
F |-------------------------------------------------------------------------|
C |-------------------------------------------------------------------------|

-----------------------------------------------------------------------------

Alternate Way of Playing Main Riff and Chorus Riff for Rhythm Guitar:

c |-----------------------------------------------------------------|
G |-----------------------------------------------------------------|
Eb|----------------------------------9-9-9-9-9-9-9-9-6-6-6-6-6-6-6-6|
Bb|--6-6-6-6-6-6-6-6-6-6-6-6-6-6-6-6-9-9-9-9-9-9-9-9-6-6-6-6-6-6-6-6|
F |--6-6-6-6-6-6-6-6-6-6-6-6-6-6-6-6-7-7-----7-7-7-7-4-4-----4-4-4-4|
C |--4-4-4-4-4-4-4-4-4-4-4-4-4-4-4-4-----7-7-------------4-4--------|

This may, however, just be the bass line that is interfering.  


================================================================

| /   slide up
| \   slide down
| h   hammer-on
| p   pull-off
| ~   vibrato
| +   harmonic
| x   Mute note
| b   bend
| pb  pre-bend
| r   release

================================================================
Suggest correction
Creating personal tab
Creating personal tab
You can edit any tab online and save it as your Personal.

You can edit, replace or remove any tab part or add personal notes – all changes will be seen only by you.

Personal tabs can be accessed anytime from any device, even offline.
Learn more »
comments
print report bad tab
23 comments total. Showing first comments.
+4 reply
reges gravi 10 Mar 03, 2006 01:26 AM

yep i ran out of freds

0 reply
moochie 60 Mar 16, 2006 04:26 PM

rythm also play this at some points

e|---------------------------------------------------------------------------|
B|---------------------------------------------------------------------------|
G|-5-5-5-5-5-5-5-5--7-7-7-7-7-7-7-7------------------------------------------|
D|-5-5-5-5-5-5-5-5--7-7-7-7-7-7-7-7--2-2-2-2-2-2-2-2-2-2-2-2-2-2-2-2---------|
A|-3-3-3-3-3-3-3-3--5-5-5-5-5-5-5-5--2-2-2-2-2-2-2-2-2-2-2-2-2-2-2-2---------|
E|-----------------------------------0-0-0-0-0-0-0-0-0-0-0-0-0-0-0-0---------|

0 reply
oxocubeingravy 362 May 27, 2006 12:26 PM

Really like the layout, good tab

guest
You may want to rate the tab now too:
select rating
Wanna post a correction for this tab? Suggest correction