Oops, an error
Loading. Please wait.

Go With The Flow Bass Tab

version 6
version 6

Whole song

  • Chorus is corrected from other tabs in standard tu... Show more
  • Extra basslines. If you want to make the bass in this song more outstanding.
37 views 1 this week
no commentswrite comment
1 2 3 4 5
3 more votes to show rating
add to favorites
launch autoscroll
font size
0
reset
guitar tuner
Autoscroll
slow
fast
+/-
esc
set tempo
stop
Help us to improve Ultimate-Guitar.com Take our survey!
×
Author
Difficulty
intermediate
About this tab version
Extra basslines. If you want to make the bass in this song more outstanding. Was this info helpful? Yes No
INTRO
G|----------------|----------------|
D|----------------|----------------|
A|----------------|----------------|
E|0-0-0-0-0-0-0-0-|0-0-0-0-0-0-0-0-|
2.
G|----------------|----------------|----------------|----------------|
D|----------------|----------------|----------------|----------------|
A|3-3-3-3-3-3-3-3-|----------------|----------------|----------------|
E|----------------|5-5-5-5-5-5-5-5-|0-0-0-0-0-0-0-0-|0-0-0-0-0-0-0-0-|
2.
G|----------------|----------------|----------------|----------------|
D|----------------|----------------|----------------|----------------|
A|3-3-3-3-3-3-3-3-|----------------|7-7-7-7-7-7-7-7-|7-7-7-7-7-7-7-5-|
E|----------------|5-5-5-5-5-5-5-5-|----------------|----------------|

VERSE

G|----------------|----------------|----------------|----------------|
D|----------------|----------------|----------------|----------------|
A|3-3-3-3-3-3-3-3-|----------------|----------------|----------------|
E|----------------|5-5-5-5-5-5-5-5-|0-0-0-0-0-0-0-0-|0-0-0-0-0-0-0-0-|
2.
G|----------------|----------------|----------------|----------------|
D|----------------|----------------|----------------|----------------|
A|3-3-3-3-3-3-3-3-|----------------|----------------|----------------|
E|----------------|5-5-5-5-5-5-5-5-|0-0-0-0-0-0-0-0-|0-0-0-0-0-0-0-0-|

G|----------------|----------------|----------------|----------------|
D|----------------|----------------|----------------|----------------|
A|3-3-3-3-3-3-3-3-|----------------|7-7-7-7-7-7-7-7-|7-7-7-7-7-7-7-5-|
E|----------------|5-5-5-5-5-5-5-5-|----------------|----------------|

G|----------------|----------------|----------------|----------------|
D|----------------|----------------|----------------|----------------|
A|3-3-3-3-3-3-3-3-|----------------|----------------|----------------|
E|----------------|5-5-5-5-5-5-5-5-|0-0-0-0-0-0-0-0-|0-0-0-0-0-0-0-0-|
2.
G|----------------|----------------|----------------|----------------|
D|----------------|----------------|----------------|----------------|
A|3-3-3-3-3-3-3-3-|----------------|----------------|----------------|
E|----------------|5-5-5-5-5-5-5-5-|0-0-0-0-0-0-0-0-|0-0-0-0-0-0-0-0-|

CHORUS

G|--------------------|----------------|----------------|----------------|
D|10-10---------------|7-7-----7-7-----|----------------|----------------|
A|------10-10---------|----7-7-----7-7-|----------------|----------------|
E|------------8\------|----------------|0-0-0-0-0-0-0-0-|0-0-0-0-0-0-0-0-|

G|--------------------|----------------|----------------|----------------|
D|10-10---------------|7-7-----7-7-----|----------------|----------------|
A|------10-10---------|----7-7-----7-7-|----------------|----------------|
E|------------8\------|----------------|0-0-0-0-0-0-0-0-|0-0-0-0-0-0-0-0-|

G|--------------------|----------------|----------------|----------------|
D|10-10---------------|7-7-----7-7-----|----------------|----------------|
A|------10-10---------|----7-7-----7-7-|----------------|----------------|
E|------------8\------|----------------|0-0-0-0-0-0-0-0-|0-0-0-0-0-0-0-0-|

G|--------------------|----------------|----------------|------------------------|
D|10-10---------------|7-7-----7-7-----|----------------|------------------------|
A|------10-10---------|----7-7-----7-7-|----------------|------------------------|
E|------------8\------|----------------|0-0-0-0-0-0-0-0/|12-12-12-12-12-12-12-12-|


2nd VERSE

G|----------------|----------------|----------------|----------------|
D|----------------|----------------|----------------|----------------|
A|3-3-3-3-3-3-3-3-|----------------|----------------|----------------|
E|----------------|5-5-5-5-5-5-5-5-|0-0-0-0-0-0-0-0-|0-0-0-0-0-0-0-0-|

G|----------------|----------------|----------------|----------------|
D|----------------|----------------|----------------|----------------|
A|3-3-3-3-3-3-3-3-|----------------|7-7-7-7-7-7-7-7-|----5-7-7-7-7-5-|
E|----------------|5-5-5-5-5-5-5-5-|----------------|5-7-------------|

G|----------------|----------------|----------------|----------------|
D|----------------|----------------|--------5---5-7-|5---------------|
A|3-3-3-3-3-3-3-3-|----------------|7-7-7-7---7-----|--7-5-7-----5-7-|
E|----------------|5-5-5-5-5-5-5-5-|----------------|--------5-7-----|
2.
G|----------------|----------------|----------------|----------------|
D|----------------|----------------|----------------|----------------|
A|3-3-3-3-3-3-3-3-|----------------|7-7-7-7-7-7-7-7-|----5-7---7-7-5-|
E|----------------|5-5-5-5-5-5-5-5-|----------------|5-7-------------|


G|----------------|----------------|----------------|----------------|
D|----------------|----------------|----------------|----------------|
A|3-3-3-3-3-3-3-3-|----------------|----------------|----------------|
E|----------------|5-5-5-5-5-5-5-5-|0-0-0-0-0-0-0-0-|0-0-0-0-0-0-0-0-|


G|----------------|----------------|----------------|----------------|
D|----------------|----------------|----------------|5-----7---------|
A|3-3-3-3-3-3-3-3-|----------------|7-7-7-7-7-7-7-7-|----7-----7-5-7-|
E|----------------|5-5-5-5-5-5-5-5-|----------------|----------------|

G|----------------|----------------|----------------|----------------|
D|----------------|----------------|--------------5-|7-5---5---------|
A|3-3-3-3-3-3-3-3-|----------------|7-7-7-7-7-7-7---|----7---7-----5-|
E|----------------|5-5-5-5-5-5-5-5-|---------------------------5-7---|

G|----------------| -- -- -- -- -- -- -- --|----------------|----------------|
D|----------------| -- -- -- -- -- -- -- --|----------------|----------------|
A|3-3-3-3-3-3-3-3/|12-12-12-12-12-12-12-12\|7-7-7-7-7-7-7-7-|7-7-7-7-7-7-7-7-|
E|----------------| -- -- -- -- -- -- -- --|----------------|----------------|

2nd CHORUS


G|--------------------|----------------|----------------|----------------|
D|10-10---------------|7-7-----7-7-----|----------------|----------------|
A|------10-10---------|----7-7-----7-7-|----------------|----------------|
E|------------8\------|----------------|0-0-0-0-0-0-0-0-|0-0-0-0-0-0-0-0-|

G|--------------------|----------------|----------------|----------------|
D|10-10---------------|7-7-----7-7-----|----------------|----------------|
A|------10-10---------|----7-7-----7-7-|----------------|----------------|
E|------------8\------|----------------|0-0-0-0-0-0-0-0-|0-0-0-0-0-0-0-0-|

G|--------------------|----------------|----------------|----------------|
D|10-10---------------|7-7-----7-7-----|----------------|----------------|
A|------10-10---------|----7-7-----7-7-|----------------|----------------|
E|------------8\------|----------------|0-0-0-0-0-0-0-0-|0-0-0-0-0-0-0-0-|

G|--------------------|----------------|----------------|------------------------|
D|10-10---------------|7-7-----7-7-----|----------------|------------------------|
A|------10-10---------|----7-7-----7-7-|----------------|------------------------|
E|------------8\------|----------------|0-0-0-0-0-0-0-0/|12-12-12-12-12-12-12-12-|

OUTRO

G|----------------|----------------|----------------|----------------|
D|----------------|----------------|----------------|----------5-----|
A|3-3-3-3-3-3-3-3-|0-5-5-5-5-5-5-5-|0-7-7-7-7-7-7-7-|7-7-7-7-7---7-5-|
E|----------------|----------------|----------------|----------------|

G|----------------|----------------|----------------|----------------|
D|----------------|----------------|----------------|----------------|
A|3-3-3-3-3-3-3-3-|0-5-5-5-5-5-5-5-|0-7-7-7-7-7-7-7-|7-7-7-7-7-7-7-7-|
E|----------------|----------------|----------------|----------------|

G|----------------|----------------|----------------|----------------|
D|----------------|----------------|----------------|----------------|
A|3-3-3-3-3-3-3-3-|0-5-5-5-5-5-5-5-|0-7-7-7-7-7-7-7-|7-7-7-7-7-7-7-7-|
E|----------------|----------------|----------------|----------------|

G|----------------|----------------|----------------|----------------|
D|----------------|----------------|----------------|5---5-7-5---5---|
A|3-3-3-3-3-3-3-3-|0-5-5-5-5-5-5-5-|0-7-7-7-7-7-7-7-|--7-------7---7-|
E|----------------|----------------|----------------|----------------|

G|----------------|----------------|----------------|----------------|
D|----------------|----------------|----------------|----------------|
A|3-3-3-3-3-3-3-3-|0-5-5-5-5-5-5-5-|0-7-7-7-7-7-7-7-|7-7-7-7-7-7-7-7-|
E|----------------|----------------|----------------|----------------|

G|----------------|----------------|----------------|----------------|
D|----------------|----------------|----------------|----------------|
A|3-3-3-3-3-3-3-3-|0-5-5-5-5-5-5-5-|0---------------|7-7-7-0-7-\-----|
E|----------------|----------------|--0-0-0-0-0-0-0-|----------------|








************************************

| x   Dead note
| g   Grace note
| (n) Ghost note
| h   Hammer-on
| p   Pull-off
| r   Release
| >   Accented note
| t   Tapping
| b   Bend
| br  Bend release
| pb  Pre-bend
| pbr Pre-bend release
| /   Slide up
| \   Slide down
| ~   Vibrato
| s   Slap
| P   Pop
| PM  Palm mute
| TR  Trill
| N   Tremolo

************************************
Suggest correction
Give kudos to tab author, rate the tab!
1 2 3 4 5
comments
print report bad tab
guest
You may want to rate the tab now too:
select rating
Wanna post a correction for this tab? Suggest correction