Oops, an error
Loading. Please wait.

God Is In The Radio tab

version 2
version 2

Whole song

Interactive

28,591 views 135 this week
3 commentsread comments
1 2 3 4 5
x 8
add to favorites
×
Save as Personal and add changes to this tab that will be seen only by you. Learn more ›
×
You can save this tab as Personal to edit and correct it or add notes. All changes will be seen only by you. Learn more »
launch autoscroll
font size
0
reset
how to read this tab
guitar tuner
edit
Autoscroll
slow
fast
+/-
esc
set tempo
stop
#----------------------------------PLEASE NOTE---------------------------------#
#This file is the author's own work and represents their interpretation of the #
#song. You may only use this file for private study, scholarship, or research. #
#------------------------------------------------------------------------------#

GOD IS IN THE RADIO
As recorded by Queens Of The Stone Age
(From the 2002 Album SONGS FOR THE DEAF)

Transcribed by Matthew Ford
	

Words and Music by Josh Homme & Nick Oliveri

Bb5
6 8 8 x x x
	
A5
5 7 7 x x x
	
G5
3 5 5 x x x
	
F
1 3 3 2 x x
C5/G
3 3 5 5 x x
	
F5
x 8 10 10 x x
	
C5
x 3 5 5 x x
	
D5
x 5 7 7 x x

Gtr I (E A D G B E) - 'Gtr.1 - Josh Homme'
Gtr II (E A D G B E) - 'Gtr.2 - Josh Homme'
Gtr III (E A D G B E) - 'Gtr.3 - Josh Homme (whammy harm. up 1 oct.)'
Gtr IV (E A D G B E) - 'Piano'

 Intro
  Moderate Rock Q=116(8=s8)
  N.C.
 4/4
  Gtr IV
  Q   Q   +Q    Q     +Q    Q   +Q    Q
|----17--(17)--17--|-(17)--17--(17)--17--|
|------------------|---------------------|
|------------------|---------------------|
|------------------|---------------------|
|------------------|---------------------|
|------------------|---------------------|


     +Q    Q   +Q    Q     +Q    Q   +Q    Q
||--(17)--17--(17)--17--|-(17)--17--(17)--17----||
||o---------------------|----------------------o||
||----------------------|-----------------------||
||----------------------|-----------------------||
||o---------------------|----------------------o||
||----------------------|-----------------------||


                                          Bb5  A5
  Gtr I
    W                     H            E  Q    E
                                          |    |
                                          /    /

   +Q    Q   +Q    Q     +Q    Q      +Q     Q
|-(17)--17--(17)--17--|-(17)--17-----(17)---17---|
|---------------------|--------------------------|
|---------------------|--------------------------|
|---------------------|--------------------------|
|---------------------|--------------------------|
|---------------------|--------------------------|
|
| Gtr II
|                              |-3-|
|   W                     Q    E E E   E  Q    E
|---------------------|--------------------------|
|---------------------|--------------------------|
|---------------------|--------------------------|
|---------------------|----------------5--8----7-|
|---------------------|--------5h6h7-------------|
|---------------------|-------------------6----5-|


                                                     Bb5  A5
     +W                            +H            +E  Q    E
      |                             |             |  |    |
      /                             /             /  /    /

     +Q     Q      +Q     Q        +Q     Q      +Q     Q    4x
||--(17)---17-----(17)---17-----|-(17)---17-----(17)---17----||
||o-----------------------------|---------------------------o||
||------------------------------|----------------------------||
||------------------------------|----------------------------||
||o-----------------------------|---------------------------o||
||------------------------------|----------------------------||
|
|           |-3-|         |-3-|           |-3-|
|    +E  E  E E E   E  E  E E E     E  E  E E E   E  Q    E  4x
||------------------------------|----------------------------||
||o-----------------------------|---------------------------o||
||------------------------------|----------------------------||
||---(7)-7------5------7------5-|------7----------5--8----7--||
||o---------5h7-----------5h7---|---------5h6h7-------------o||
||---(5)------------5-----------|---5----------------6----5--||


   Verse
                                                     Bb5  A5
     +W                            +H            +E  Q    E    +W
      |                             |             |  |    |     |
      /                             /             /  /    /     /

     +Q     Q      +Q     Q        +Q     Q      +Q     Q      +Q     Q      +Q     Q
||--(17)---17-----(17)---17-----|-(17)---17-----(17)---17---|-(17)---17-----(17)---17-----|
||o-----------------------------|---------------------------|-----------------------------|
||------------------------------|---------------------------|-----------------------------|
||------------------------------|---------------------------|-----------------------------|
||o-----------------------------|---------------------------|-----------------------------|
||------------------------------|---------------------------|-----------------------------|
|
|           |-3-|         |-3-|           |-3-|                       |-3-|         |-3-|
|    +E  E  E E E   E  E  E E E     E  E  E E E   E  Q    E    +E  E  E E E   E  E  E E E
||------------------------------|---------------------------|-----------------------------|
||o-----------------------------|---------------------------|-----------------------------|
||------------------------------|---------------------------|-----------------------------|
||---(7)-7------5------7------5-|------7----------5--8----7-|--(7)-7------5------7------5-|
||o---------5h7-----------5h7---|---------5h6h7-------------|---------5h7-----------5h7---|
||---(5)------------5-----------|---5----------------6----5-|--(5)------------5-----------|


 1.,2.,3.                      4.
                     Bb5  A5                       Bb5
   +H            +E  Q    E      +H            +E  Q    +E
    |             |  |    |       |             |  |     |
    /             /  /    /       /             /  /     /

   +Q     Q      +Q     Q    4x  +Q     Q      +Q     Q
|-(17)---17-----(17)---17----||-(17)---17-----(17)---17---------||
|---------------------------o||---------------------------------||
|----------------------------||---------------------------------||
|----------------------------||---------------------------------||
|---------------------------o||---------------------------------||
|----------------------------||---------------------------------||
|
|         |-3-|                         |-3-|
|   E  E  E E E   E  Q    E  4x   E  E  E E E   E  Q    +E
|----------------------------||---------------------------------||
|---------------------------o||---------------------------------||
|----------------------------||---------------------------------||
|------7----------5--8----7--||------7----------5--8----(8)\----||
|---------5h6h7-------------o||---------5h6h7-------------------||
|---5----------------6----5--||---5----------------6----(6)\----||


   Chorus
    $                                                    To Coda
    A5   G5      A5           F
                      2/4    4/4
    Gtrs I, II
    Q  E E +E  E Q     W      E E E E E E E E   E E E E E E E E
||-------------------|------|-----------------|-------------------||
||o------------------|------|-----------------|------------------o||
||-------------------|------|-2-2-2-2-2-2-2-2-|-2-2-2-2-2-2-2-2---||
||--7----5-(5)---7\--|------|-3-3-3-3-3-3-3-3-|-3-3-3-3-3-3-3-3---||
||o-7----5-(5)---7\--|------|-3-3-3-3-3-3-3-3-|-3-3-3-3-3-3-3-3--o||
||--5----3-(3)-0-5\--|------|-1-1-1-1-1-1-1-1-|-1-1-1-1-1-1-1-1---||


  A5   G5    C5/A5           F
                     2/4    4/4
  Q  E E +S  E. Q     W      E E E E E E E E   E E E E E E E E
|-------------------|------|-----------------|-----------------|
|-------------------|------|-----------------|-----------------|
|------------5------|------|-2-2-2-2-2-2-2-2-|-2-2-2-2-2-2-2-2-|
|-7----5-(5)-5--7\--|------|-3-3-3-3-3-3-3-3-|-3-3-3-3-3-3-3-3-|
|-7----5-(5)-3--7\--|------|-3-3-3-3-3-3-3-3-|-3-3-3-3-3-3-3-3-|
|-5----3-(3)-3--5\--|------|-1-1-1-1-1-1-1-1-|-1-1-1-1-1-1-1-1-|


  A5   G5      A5           F                             Bb5A5
                    2/4    4/4
                                                          Gtr I
  W                  W      W                 H         E Q  E
                                                          |  |
                                                          /  /

                                                          Gtr II
                                                  |-3-|
  Q  E E +E  E Q     W      E E E E E E E E   E E E E E E Q  E
|------------------|------|-----------------|-------------------||
|------------------|------|-----------------|-------------------||
|------------------|------|-2-2-2-2-2-2-2-2-|-2-2---------------||
|-7----5-(5)---7\--|------|-3-3-3-3-3-3-3-3-|-3-3-------5-8--7--||
|-7----5-(5)---7\--|------|-3-3-3-3-3-3-3-3-|-3-3-5h6h7---------||
|-5----3-(3)-0-5\--|------|-1-1-1-1-1-1-1-1-|-1-1---------6--5--||


 Interlude
                                                  Bb5  A5
  +W                            +H            +E  Q    E
   |                             |             |  |    |
   /                             /             /  /    /

  Gtr IV
   Q     Q      +Q     Q        +Q     Q      +Q     Q
|-------17-----(17)---17-----|-(17)---17-----(17)---17---|
|----------------------------|---------------------------|
|----------------------------|---------------------------|
|----------------------------|---------------------------|
|----------------------------|---------------------------|
|----------------------------|---------------------------|
|
| Gtr II
|        |-3-|         |-3-|           |-3-|
| +E  E  E E E   E  E  E E E     E  E  E E E   E  Q    E
|----------------------------|---------------------------|
|----------------------------|---------------------------|
|----------------------------|---------------------------|
|-(7)-7------5------7------5-|------7----------5--8----7-|
|--------5h7-----------5h7---|---------5h6h7-------------|
|-(5)------------5-----------|---5----------------6----5-|


                                                   Bb5  A5
   +W                            +H            +E  Q    E
    |                             |             |  |    |
    /                             /             /  /    /

   +Q     Q      +Q     Q        +Q     Q      +Q     Q
|-(17)---17-----(17)---17-----|-(17)---17-----(17)---17---||
|-----------------------------|---------------------------||
|-----------------------------|---------------------------||
|-----------------------------|---------------------------||
|-----------------------------|---------------------------||
|-----------------------------|---------------------------||
|
|         |-3-|         |-3-|           |-3-|
|  +E  E  E E E   E  E  E E E     E  E  E E E   E  Q    E
|-----------------------------|---------------------------||
|-----------------------------|---------------------------||
|-----------------------------|---------------------------||
|--(7)-7------5------7------5-|------7----------5--8----7-||
|---------5h7-----------5h7---|---------5h6h7-------------||
|--(5)------------5-----------|---5----------------6----5-||


 Verse
                                                      Bb5  A5
   +W                              +H             +E  Q    E
    |                               |              |  |    |
    /                               /              /  /    /

   +Q      Q      +Q      Q        +Q      Q      +Q     Q
|-(17)----17-----(17)----17-----|-(17)----17-----(17)---17---|
|-------------------------------|----------------------------|
|-------------------------------|----------------------------|
|-------------------------------|----------------------------|
|-------------------------------|----------------------------|
|-------------------------------|----------------------------|
|
|          |-3-|          |-3-|            |-3-|
|  +E   E  E E E   E   E  E E E     E   E  E E E   E  Q    E
|-------------------------------|----------------------------|
|-------------------------------|----------------------------|
|-------------------------------|----------------------------|
|--(7)--7------5-------7------5-|-------7----------5--8----7-|
|----------5h7------------5h7---|----------5h6h7-------------|
|--(5)-------------5------------|---5-----------------6----5-|
|
| Gtr III
|          |-3-|          |-3-|            |-3-|
|   E   E  E E E   E   E  E E E     E   E  E E E   E  Q    E
|-------------------------------|----------------------------|
|------10-------------10--------|------10----------8---------|
|----------7h9------------7h9---|----------7h8h9-------------|
|--------------7--------------7-|---------------------8----7-|
|-------------------------------|----------------------------|
|-------------------------------|----------------------------|


                                                      Bb5  A5
   +W                              +H             +E  Q    E
    |                               |              |  |    |
    /                               /              /  /    /

   +Q      Q      +Q      Q        +Q      Q      +Q     Q
|-(17)----17-----(17)----17-----|-(17)----17-----(17)---17---|
|-------------------------------|----------------------------|
|-------------------------------|----------------------------|
|-------------------------------|----------------------------|
|-------------------------------|----------------------------|
|-------------------------------|----------------------------|
|
|          |-3-|          |-3-|            |-3-|
|  +E   E  E E E   E   E  E E E     E   E  E E E   E  Q    E
|-------------------------------|----------------------------|
|-------------------------------|----------------------------|
|-------------------------------|----------------------------|
|--(7)--7------5-------7------5-|-------7----------5--8----7-|
|----------5h7------------5h7---|----------5h6h7-------------|
|--(5)-------------5------------|---5-----------------6----5-|
|
|          |-3-|          |-3-|            |-3-|
|  +E   E  E E E   E   E  E E E     E   E  E E E   E  Q    E
|-------------------------------|----------------------------|
|------10-------------10--------|------10----------8---------|
|----------7h9------------7h9---|----------7h8h9-------------|
|--(7)---------7--------------7-|---------------------8----7-|
|-------------------------------|----------------------------|
|-------------------------------|----------------------------|


                                                        Bb5  A5
     +W                              +H             +E  Q    E    +W
      |                               |              |  |    |     |
      /                               /              /  /    /     /

     +Q      Q      +Q      Q        +Q      Q      +Q     Q      +Q      Q      +Q      Q
||--(17)----17-----(17)----17-----|-(17)----17-----(17)---17---|-(17)----17-----(17)----17-----|
||o-------------------------------|----------------------------|-------------------------------|
||--------------------------------|----------------------------|-------------------------------|
||--------------------------------|----------------------------|-------------------------------|
||o-------------------------------|----------------------------|-------------------------------|
||--------------------------------|----------------------------|-------------------------------|
|
|            |-3-|          |-3-|            |-3-|                        |-3-|          |-3-|
|    +E   E  E E E   E   E  E E E     E   E  E E E   E  Q    E    +E   E  E E E   E   E  E E E
||--------------------------------|----------------------------|-------------------------------|
||o-------------------------------|----------------------------|-------------------------------|
||--------------------------------|----------------------------|-------------------------------|
||---(7)--7------5-------7------5-|-------7----------5--8----7-|--(7)--7------5-------7------5-|
||o----------5h7------------5h7---|----------5h6h7-------------|----------5h7------------5h7---|
||---(5)-------------5------------|---5-----------------6----5-|--(5)-------------5------------|
|
|            |-3-|          |-3-|            |-3-|                        |-3-|          |-3-|
|    +E   E  E E E   E   E  E E E     E   E  E E E   E  Q    E    +E   E  E E E   E   E  E E E
||--------------------------------|----------------------------|-------------------------------|
||o------10-------------10--------|------10----------8---------|------10-------------10--------|
||-----------7h9------------7h9---|----------7h8h9-------------|----------7h9------------7h9---|
||---(7)---------7--------------7-|---------------------8----7-|--(7)---------7--------------7-|
||o-------------------------------|----------------------------|-------------------------------|
||--------------------------------|----------------------------|-------------------------------|


 1.,2.                          3.
                                              D.S. al Coda
                      Bb5  A5                        Bb5
   +H             +E  Q    E      +H             +E  Q    +E
    |              |  |    |       |              |  |     |
    /              /  /    /       /              /  /     /

   +Q      Q      +Q     Q        +Q      Q      +Q     Q
|-(17)----17-----(17)---17----||-(17)----17-----(17)---17---------||
|----------------------------o||----------------------------------||
|-----------------------------||----------------------------------||
|-----------------------------||----------------------------------||
|----------------------------o||----------------------------------||
|-----------------------------||----------------------------------||
|
|          |-3-|                          |-3-|
|   E   E  E E E   E  Q    E       E   E  E E E   E  Q    +E
|-----------------------------||----------------------------------||
|----------------------------o||----------------------------------||
|-----------------------------||----------------------------------||
|-------7----------5--8----7--||-------7----------5--8----(8)\----||
|----------5h6h7-------------o||----------5h6h7-------------------||
|---5-----------------6----5--||---5-----------------6----(6)\----||
|
|          |-3-|                          |-3-|
|   E   E  E E E   E  Q    E      +E   E  E E E   E  Q    +E
|-----------------------------||----------------------------------||
|------10----------8---------o||------10----------8---------------||
|----------7h8h9--------------||----------7h8h9-------------------||
|---------------------8----7--||--(7)----------------8----(8)\----||
|----------------------------o||----------------------------------||
|-----------------------------||----------------------------------||


  &
  A5   G5    C5/A5                 F
                     5/4          4/4
  Gtrs I, II
  Q  E E +S  E. Q     W            E E E E E E E E   E E E E E E E E
|-------------------|------------|-----------------|-----------------|
|-------------------|------------|-----------------|-----------------|
|------------5------|------------|-2-2-2-2-2-2-2-2-|-2-2-2-2-2-2-2-2-|
|-7----5-(5)-5--7\--|------------|-3-3-3-3-3-3-3-3-|-3-3-3-3-3-3-3-3-|
|-7----5-(5)-3--7\--|------------|-3-3-3-3-3-3-3-3-|-3-3-3-3-3-3-3-3-|
|-5----3-(3)-3--5\--|------------|-1-1-1-1-1-1-1-1-|-1-1-1-1-1-1-1-1-|


  A5   G5      A5                 F
                    5/4          4/4
  W                  W            W
  Q  E E +E  E Q     W            E E E E E E E E
|------------------|------------|-----------------|
|------------------|------------|-----------------|
|------------------|------------|-2-2-2-2-2-2-2-2-|
|-7----5-(5)---7\--|------------|-3-3-3-3-3-3-3-3-|
|-7----5-(5)---7\--|------------|-3-3-3-3-3-3-3-3-|
|-5----3-(3)-0-5\--|------------|-1-1-1-1-1-1-1-1-|


              Bb5A5
      Gtr I
  H         E Q  E   +Q    Q  H
              |  |    |
              /  /    /

      Gtr II
      |-3-|
  E E E E E E Q  E   +Q    Q  H
|------------------|---------------||
|------------------|---------------||
|-2-2--------------|---------------||
|-3-3-------5-8--7-|-(7)\----------||
|-3-3-5h6h7--------|---------------||
|-1-1---------6--5-|-(5)\----------||


 Bridge
  N.C.                G5  F5
  Gtrs I, II
  Wx3          H    E  Q   E
|------------|---------------|
|------------|--------12--10-|
|------------|--------12--10-|
|------------|--------12--10-|
|------------|--------10---8-|
|------------|--------10---8-|


                             C5D5  C5D5  C5D5  C5D5
  Gtrs I, II
                             |-3-| |-3-| |-3-| |-3-|
   +E   E  E  E  E  E  E E   E E E E E E E E E E E E
|--------------------------|-------------------------|
|-(10)-10-10-10-10-10-10---|-------------------------|
|-(10)-10-10-10-10-10-10---|-5s7-7-5s7-7-5s7-7-5s7-7-|
|-(10)-10-10-10-10-10-10---|-5s7-7-5s7-7-5s7-7-5s7-7-|
|--(8)--8--8--8--8--8--8-0-|-3s5-5-3s5-5-3s5-5-3s5-5-|
|--(8)--8--8--8--8--8--8---|-------------------------|
|
| Gtr III
|   W                        W
|--------------------------|-------------------------|
|--------------------------|-------------------------|
|--------------------------|-------------------------|
|--------------------------|-------------------------|
|--------------------------|-------------------------|
|--------------------------|-------------------------|


  A5                           G5     F5
                               Gtr I
  E E E E E E E E   E E E E E   Q      E
|-----------------|----------------------|
|-----------------|----------------------|
|-----------------|------------12-----10-|
|-7-7-7-7-7-7-7-7-|-7-7-7-7-7\-12-----10-|
|-----------------|------------10------8-|
|-5-5-5-5-5-5-5-5-|-5-5-5-5-5\-----------|
|
| W                 H       E   Q      E
|-----------------|----------------------|
|-----------------|----------------------|
|-----------------|------------12b14--12-|
|-----------------|----------------------|
|-----------------|----------------------|
|-----------------|----------------------|


                              C5 D5    C5 D5    C5 D5    C5 D5
                               |--3--|  |--3--|  |--3--|  |-----3-----|
   +E   E  E  E  E  E  E  E    E  E  E  E  E  E  E  E  E  E E         E
|---------------------------|-------------------------------------------|
|---------------------------|-------------------------------------------|
|-(10)-10-10-10-10-10-10-10-|--5s=7--7--5s=7--7--5s=7--7--5s7---------7-|
|-(10)-10-10-10-10-10-10-10-|--5s=7--7--5s=7--7--5s=7--7--5s7---------7-|
|--(8)--8--8--8--8--8--8--8-|--3s=5--5--3s=5--5--3s=5--5--3s5---------5-|
|---------------------------|-------------------------------------------|
|
|   ~~~~                                                       ~~~~~~~~~~
|                              |--3--|  |--3--|  |--3--|
|  +W                          E  E  E  E  E  E  E  E  E  e    E
|---------------------------|-------------------------------------------|
|---------------------------|-------------------------------------------|
|-(12)----------------------|-------------------------------------------|
|---------------------------|-10-12----10----10-12----10-12---12b13.5---|
|---------------------------|-------12----12-------12-------------------|
|---------------------------|-------------------------------------------|


  A5                                                            G5  F5
    E        E E E   E          E  E    E       E    E E E   E   Q   E
|--------------------------------------------|---------------------------|
|--------------------------------------------|---------------------------|
|--------------------------------------------|------------------12--10---|
|---7--------7-7-7---7----------7--7----7----|--7----7-7-7---7\-12--10---|
|--------------------------------------------|------------------10---8---|
|---5--------5-5-5---5----------5--5----5----|--5----5-5-5---5\----------|
|
|~~~~~~~~~~~~                                                    ~~
|                                  |---3---|
|  +H               +E          E  E  E    E    H           +E   Q   E
|--------------------------------------------|---------------------------|
|--------------------------------------------|---------------------------|
|--------------------------------------------|---------------------------|
|-(12)pb13.5-------(12)pb13.5rp10-12------10-|------------------10-------|
|------------------------------------12------|-12b14r======(12)-----12---|
|--------------------------------------------|---------------------------|


                                C5 D5    C5 D5    C5 D5    C5    D5
                                 |--3--|  |--3--|  |--3--|  |-----3------|
    E   E  E  E   E   E  E  E    E  E  E  E  E  E  E  E  E  E    E       E
|-----------------------------|--------------------------------------------|
|-----------------------------|--------------------------------------------|
|--10--10-10-10--10--10-10-10-|--5s=7--7--5s=7--7--5s=7--7--5s===7-------7-|
|--10--10-10-10--10--10-10-10-|--5s=7--7--5s=7--7--5s=7--7--5s===7-------7-|
|---8---8--8--8---8---8--8--8-|--3s=5--5--3s=5--5--3s=5--5--3s===5-------5-|
|-----------------------------|--------------------------------------------|
|
|                                |--3--|  |--3--|  |--3--|
|  +E   E  E  E  +Q      E  E    E  E  E  E  E  E  E  E  E  e       E
|-----------------------------|--------------------------------------------|
|-----------------------------|----------------13----13-15-15b17---15b17---|
|-----------------------12----|-12-14----12-14----14-----------------------|
|------10-12s14-(14)-------14-|-------14-----------------------------------|
|-(12)------------------------|--------------------------------------------|
|-----------------------------|--------------------------------------------|


  A5                                                               G5         F5
    E      E E E   E       E  E    E       E     E     E E   E      Q          E
|---------------------------------------|----------------------------------------|
|---------------------------------------|----------------------------------------|
|---------------------------------------|--------------------------12---------10-|
|---7------7-7-7---7-------7--7----7----|--7-----7-----7-7---7\----12---------10-|
|---------------------------------------|--------------------------10----------8-|
|---5------5-5-5---5-------5--5----5----|--5-----5-----5-5---5\------------------|
|
|   ~~~~~~~~
|                             |---3---|
|  +H             +E       E  E  E    E    E     Q.         +S   S  E     S S  E
|---------------------------------------|-15b17----------------------------------|
|-(15)pb17-------(15)pb17r13-15------13-|-------15pb16r====(15)p13-15b17------13-|
|-------------------------------14------|--------------------------------14------|
|---------------------------------------|----------------------------------------|
|---------------------------------------|----------------------------------------|
|---------------------------------------|----------------------------------------|


                                    C5 D5    C5 D5    C5 D5    C5 D5
                                     |--3--|  |--3--|  |--3--|  |--3--|
    E   E  E  E  E     E  E     E    E  E  E  E  E  E  E  E  E  E  E  E
|---------------------------------|-------------------------------------|
|---------------------------------|-------------------------------------|
|--10--10-10-10-10----10-10----10-|--5s=7--7--5s=7--7--5s=7--7--5s=7--7-|
|--10--10-10-10-10----10-10----10-|--5s=7--7--5s=7--7--5s=7--7--5s=7--7-|
|---8---8--8--8--8-----8--8-----8-|--3s=5--5--3s=5--5--3s=5--5--3s=5--5-|
|---------------------------------|-------------------------------------|
|
|                                    |--3--|  |--3--|  |--3--|  |--3--|
|  +E   E  E  E  S  S  E  E     E    E  E  E  E  E  E  E  E  E  E  E  E
|---------------------------------|-17-15----17-19----------------------|
|-(13)-13----13-15s17-15-17b18r15-|-------17-------15s13-15-13-15s17-15s|
|---------14----------------------|-------------------------------------|
|---------------------------------|-------------------------------------|
|---------------------------------|-------------------------------------|
|---------------------------------|-------------------------------------|


  C5 D5    C5 D5    C5 D5    C5    D5
   |--3--|  |--3--|  |--3--|  |----3----|
   E  E  E  E  E  E  E  E  E  E    E    E
|------------------------------------------||
|------------------------------------------||
|--5s=7--7--5s=7--7--5s=7--7--5s===7----7--||
|--5s=7--7--5s=7--7--5s=7--7--5s===7----7--||
|--3s=5--5--3s=5--5--3s=5--5--3s===5----5--||
|------------------------------------------||
|
|  |--3--|  |--3--|  |--3--|
|  E  E  E  E  E  E  E  E  E  e       E
|------------------------------------------||
|-13-15----13------------------------------||
|-------14----14-12-14---------------------||
|----------------------12-10-12b14---10----||
|------------------------------------------||
|------------------------------------------||


 Breakdown
  N.C.
  Gtr IV
    Q     Q    +Q     Q      +Q     Q    +Q       Q
|--------17---(17)---17---|-(17)---17---(17)-----17---|
|-------------------------|---------------------------|
|-------------------------|---------------------------|
|-------------------------|---------------------------|
|-------------------------|---------------------------|
|-------------------------|---------------------------|
|
| Gtr II
|   E  E  E E  +E  E  E E    +E  E  E E  +E    Q    E
|-------------------------|---------------------------|
|-------------------------|---------------------------|
|-------------------------|---------------------------|
|------7----7--(7)-7----7-|--(7)-7----7--(7)---5----7-|
|-------------------------|---------------------------|
|---5-----5-----------5---|---------5----------3----5-|
|
| Gtr III
|  +W                        +H          +E    Q    E
|-------------------------|---------------------------|
|-------------------------|---------------------------|
|-------------------------|---------------------------|
|-(10)--------------------|-(10)--------(10)\---------|
|-------------------------|---------------------------|
|-------------------------|-------------------/6----5-|


   +Q     Q    +Q     Q      +Q     Q    +Q     Q
|-(17)---17---(17)---17---|-(17)---17---(17)---17------|
|-------------------------|----------------------------|
|-------------------------|----------------------------|
|-------------------------|----------------------------|
|-------------------------|----------------------------|
|-------------------------|----------------------------|
|
|  +E  E  E E  +E  E  E E    +E  E  E E  +E  Q     E
|-------------------------|----------------------------|
|-------------------------|----------------------------|
|-------------------------|----------------------------|
|--(7)-7----7--(7)-7----7-|--(7)-7----7--(7)-5-----7---|
|-------------------------|----------------------------|
|--(5)----5-----------5---|---------5--------3-----5---|
|
|  +W                        +H          +E  Q    +E
|-------------------------|----------------------------|
|-------------------------|----------------------------|
|-------------------------|----------------------------|
|-------------------------|----------------------------|
|-------------------------|----------------------------|
|--(5)--------------------|--(5)---------(5)-3----(3)\-|


   +Q     Q    +Q     Q      +Q     Q    +Q     Q
|-(17)---17---(17)---17---|-(17)---17---(17)---17---|
|-------------------------|-------------------------|
|-------------------------|-------------------------|
|-------------------------|-------------------------|
|-------------------------|-------------------------|
|-------------------------|-------------------------|
|
|  +E  E  E E  +E  E  E E    +E  E  E E   E  Q    E
|-------------------------|-------------------------|
|-------------------------|-------------------------|
|-------------------------|-------------------------|
|--(7)-7----7--(7)-7----7-|--(7)-7----7---7--5----7-|
|-------------------------|-------------------------|
|--(5)----5-----------5---|---------5--------3----5-|


   +Q     Q    +Q     Q      +Q     Q      +Q     Q
|-(17)---17---(17)---17---|-(17)---17-----(17)---17----|
|-------------------------|----------------------------|
|-------------------------|----------------------------|
|-------------------------|----------------------------|
|-------------------------|----------------------------|
|-------------------------|----------------------------|
|
|                                   |-3-|
|  +E  E  E E   E  E  E E    +E  E  E E E   E  Q    E
|-------------------------|----------------------------|
|-------------------------|----------------------------|
|-------------------------|----------------------------|
|--(7)-7----7------7----7-|--(7)-7----------5----------|
|-------------------------|---------5h6h7--------------|
|--(5)----5-----5-----5---|--------------------6----5--|


   +Q     Q    +Q     Q      +Q     Q    +Q     Q
|-(17)---17---(17)---17---|-(17)---17---(17)---17---|
|-------------------------|-------------------------|
|-------------------------|-------------------------|
|-------------------------|-------------------------|
|-------------------------|-------------------------|
|-------------------------|-------------------------|
|
|  +E  E  E E  +E  E  E E    +E  E  E E   E  Q    E
|-------------------------|-------------------------|
|-------------------------|-------------------------|
|-------------------------|-------------------------|
|------7----7--(7)-7----7-|--(7)-7----7---7--8----7-|
|-------------------------|-------------------------|
|--(5)----5-----------5---|---------5-5---5--6----5-|
|
| Gtr I
|   W                         W
|-------------------------|-------------------------|
|-------------------------|-------------------------|
|-------------------------|-------------------------|
|-------------------------|-------------------------|
|-------------------------|-------------------------|
|-------------------------|-------------------------|


   +Q     Q    +Q     Q      +Q     Q          +Q     Q
|-(17)---17---(17)---17---|-(17)---17---------(17)---17---|
|-------------------------|-------------------------------|
|-------------------------|-------------------------------|
|-------------------------|-------------------------------|
|-------------------------|-------------------------------|
|-------------------------|-------------------------------|
|
|  +E  E  E E   E  E  E E     E  E  E  E        E  Q    E
|-------------------------|-------------------------------|
|-------------------------|-------------------------------|
|-------------------------|-------------------------------|
|--(7)-7----7---7--7--7-7-|---7--7--7--7--------7--7----7-|
|-------------------------|-------------------------------|
|--(5)-5--5-5---5--5--5-5-|---5--5--5--5--------5--5----5-|
|
|   W                         Q     E  T T  S   H
|-------------------------|-------------------------------|
|-------------------------|-----------10p8h10-------------|
|-------------------------|-------------------------------|
|-------------------------|-------------------------------|
|-------------------------|-------------------------------|
|-------------------------|-------------------------------|


   +Q     Q    +Q     Q      +Q     Q    +Q     Q
|-(17)---17---(17)---17---|-(17)---17---(17)---17---|
|-------------------------|-------------------------|
|-------------------------|-------------------------|
|-------------------------|-------------------------|
|-------------------------|-------------------------|
|-------------------------|-------------------------|
|
|  +E  E  E E   E  Q    E     E  E  E E   E  E  E E
|-------------------------|-------------------------|
|-------------------------|-------------------------|
|-------------------------|-------------------------|
|--(7)-7----7------7----7-|---7--7--7-7---7--7--7-7-|
|-------------------------|-------------------------|
|--(5)----5-----5---------|---------------5---------|


   +Q     Q    +Q     Q      +Q     Q    +Q     Q
|-(17)---17---(17)---17---|-(17)---17---(17)---17---|
|-------------------------|-------------------------|
|-------------------------|-------------------------|
|-------------------------|-------------------------|
|-------------------------|-------------------------|
|-------------------------|-------------------------|
|
|  +E  E  E E   E  E  E E     E  E  E E   E  E  E E
|-------------------------|-------------------------|
|-------------------------|-------------------------|
|-------------------------|-------------------------|
|--(7)-7--7-7---7--7--7-7-|---7--7--7-7---7--7--7-7-|
|-------------------------|-------------------------|
|-------------------------|---------5--------6----5-|


   +Q     Q    +Q     Q      +Q     Q    +Q    Q
|-(17)---17---(17)---17---|-(17)---17---(17)--17---|
|-------------------------|------------------------|
|-------------------------|------------------------|
|-------------------------|------------------------|
|-------------------------|------------------------|
|-------------------------|------------------------|
|
|  +E  E  E E   E  E  E E     E  E  E E   E E  E E
|-------------------------|------------------------|
|-------------------------|------------------------|
|-------------------------|------------------------|
|--(7)-7--7-7---7--7--7-7-|---7--7--7-7---7-7--7-7-|
|-------------------------|------------------------|
|-------------------------|---------------5h6----5-|


   +Q     Q    +Q     Q      +Q     Q    +Q     Q
|-(17)---17---(17)---17---|-(17)---17---(17)---17---|
|-------------------------|-------------------------|
|-------------------------|-------------------------|
|-------------------------|-------------------------|
|-------------------------|-------------------------|
|-------------------------|-------------------------|
|
|  +E  E  E E   E  E  E E     E  E  E E   E  E  E E
|-------------------------|-------------------------|
|-------------------------|-------------------------|
|-------------------------|-------------------------|
|--(7)-7--7-7---7--7--7-7-|---7--7--7-7---7--7--7-7-|
|-------------------------|-------------------------|
|--(5)-5--5-5---5--5--5-5-|---5--5--5-5---5--6----5-|


   +Q     Q    +Q     Q      +Q     Q      +Q     Q
|-(17)---17---(17)---17---|-(17)---17-----(17)---17---|
|-------------------------|---------------------------|
|-------------------------|---------------------------|
|-------------------------|---------------------------|
|-------------------------|---------------------------|
|-------------------------|---------------------------|
|
|                                   |-3-|
|  +E  E  E E   E  E  E E     E  E  E E E   E  E  E E
|-------------------------|---------------------------|
|-------------------------|---------------------------|
|-------------------------|---------------------------|
|--(7)-7--7-7---7--7--7-7-|---7--7--7-7-7---7--7--7-7-|
|-------------------------|---------------------------|
|--(5)-5--5-5---5--5--5-5-|---5--5--5-5-5---5--6----5-|
|
| Gtr I
|   W                         W
|-------------------------|---------------------------|
|-------------------------|---------------------------|
|-------------------------|---------------------------|
|-------------------------|---------------------------|
|-------------------------|---------------------------|
|-------------------------|---------------------------|


   +Q      Q         +Q         Q           +Q         Q    +Q     Q
|-(17)----17--------(17)-------17--------|-(17)-------17---(17)---17---|
|----------------------------------------|-----------------------------|
|----------------------------------------|-----------------------------|
|----------------------------------------|-----------------------------|
|----------------------------------------|-----------------------------|
|----------------------------------------|-----------------------------|
|
|  +E  E   E    E     E    E    E    E       E    E    E E   E  Q    E
|----------------------------------------|-----------------------------|
|----------------------------------------|-----------------------------|
|----------------------------------------|-----------------------------|
|--(7)-7--------7----------7---------7---|---7----7----7-7---7--7----7-|
|----------------------------------------|-----------------------------|
|--(5)-----5----------5---------5--------|-------------------5--6----5-|
|
|                                                            ~~~~
|   Q      S S  S S   S S  S S  S S  S S     S S  S S  E E  +H
|----------------------------------------|-----------------------------|
|--------h10-8h10p8h=10p8h10p8h10p8h10p8h|==10p8h10p8h10-8--(8)--------|
|----------------------------------------|-----------------------------|
|----------------------------------------|-----------------------------|
|----------------------------------------|-----------------------------|
|----------------------------------------|-----------------------------|


   +Q     Q    +Q     Q      +Q     Q    +Q           Q
|-(17)---17---(17)---17---|-(17)---17---(17)---------17----|
|-------------------------|--------------------------------|
|-------------------------|--------------------------------|
|-------------------------|--------------------------------|
|-------------------------|--------------------------------|
|-------------------------|--------------------------------|
|
|  +E  E  E E   E  E  E E     E  E  E E   E  Q           E
|-------------------------|--------------------------------|
|-------------------------|--------------------------------|
|-------------------------|--------------------------------|
|--(7)-7----7------7----7-|------7----7---7--7-----------7-|
|-------------------------|--------------------------------|
|--(5)----5-----5-----5---|---5-----5-----5----------------|
|
|   W                         H           E  T T T T +Q
|-------------------------|--------------------------------|
|-------------------------|------------------7h8p7s5-(5)---|
|-------------------------|--------------------------------|
|-------------------------|--------------------------------|
|-------------------------|--------------------------------|
|-------------------------|--------------------------------|


   +Q     Q    +Q           Q       +Q     Q    +Q           Q
|-(17)---17---(17)---------17----|-(17)---17---(17)---------17----|
|--------------------------------|--------------------------------|
|--------------------------------|--------------------------------|
|--------------------------------|--------------------------------|
|--------------------------------|--------------------------------|
|--------------------------------|--------------------------------|
|
|  +E  E  E E   E  E        E  E     E  E  E E   E  Q           E
|--------------------------------|--------------------------------|
|--------------------------------|--------------------------------|
|--------------------------------|--------------------------------|
|--(7)-7----7------7-----------7-|------7----7---7--7-----------7-|
|--------------------------------|--------------------------------|
|---------5-----5-----------5----|---5-----5-----5----------------|
|
|   H           E  T T T T +Q        H           E  T T T T +Q
|--------------------------------|--------------------------------|
|------------------7h8p5s3-(3)---|--------------------------------|
|--------------------------------|------------------4h5p4s2-(2)---|
|--------------------------------|--------------------------------|
|--------------------------------|--------------------------------|
|--------------------------------|--------------------------------|


   +Q         Q      +Q     Q      +Q       Q    +Q        Q
|-(17)-------17-----(17)---17---|-(17)-----17---(17)------17---|
|-------------------------------|------------------------------|
|-------------------------------|------------------------------|
|-------------------------------|------------------------------|
|-------------------------------|------------------------------|
|-------------------------------|------------------------------|
|
|  +E  E      E   E   E  E  E E     E  E    E E   E     Q    E
|-------------------------------|------------------------------|
|-------------------------------|------------------------------|
|-------------------------------|------------------------------|
|--(7)-7----------7------7----7-|------7------7---7-----7----7-|
|-------------------------------|------------------------------|
|-------------5-------5-----5---|---5-------5-----5------------|
|
|                 ~~~~~~~
|   E  T T s  S S E  +E  E  Q       E  Q.        +Q        Q
|-------------------------------|------------------------------|
|-------------------------------|------------------------------|
|------4h5p4--4h5s7--(7)--------|------7b9-------(7)pb9r=======|
|-------------------------------|------------------------------|
|-------------------------------|------------------------------|
|-------------------------------|------------------------------|


   +Q      Q        +Q        Q          +Q        Q    +Q     Q
|-(17)----17-------(17)------17-------|-(17)------17---(17)---17--------|
|-------------------------------------|---------------------------------|
|-------------------------------------|---------------------------------|
|-------------------------------------|---------------------------------|
|-------------------------------------|---------------------------------|
|-------------------------------------|---------------------------------|
|
|  +E   E  E   E     E   E    E   E       E     E  E E   E  Q    E
|-------------------------------------|---------------------------------|
|-------------------------------------|---------------------------------|
|-------------------------------------|---------------------------------|
|--(7)--7------7---------7--------7---|---------7----7---7--7----7------|
|-------------------------------------|---------------------------------|
|----------5---------5--------5-------|---5--------5-----5--------------|
|
|                                           ~~~
|                                                                |-3-|
|   E   E  S S S S   S S S S  S S S S     S Q..          Q     E S S S
|-------------------------------------|---------------------------------|
|-------------------------------------|---------------------------------|
|------h4--5p4h5p4h==5p4h5p4h=5p4h5p4h|===5s7--------------------4h5p4s=|
|-------------------------------------|---------------------------------|
|-------------------------------------|---------------------------------|
|-------------------------------------|---------------------------------|


   +Q     Q    +Q     Q        +Q     Q    +Q      Q
|-(17)---17---(17)---17-----|-(17)---17---(17)----17----|
|---------------------------|---------------------------|
|---------------------------|---------------------------|
|---------------------------|---------------------------|
|---------------------------|---------------------------|
|---------------------------|---------------------------|
|
|  +E  E  E E   E  E  E E       E  E  E E   E  Q      E
|---------------------------|---------------------------|
|---------------------------|---------------------------|
|---------------------------|---------------------------|
|--(7)-7----7------7----7---|------7----7---7--5------7-|
|---------------------------|---------------------------|
|---------5-----5-----5-----|---5-----5-----5--3------5-|
|
|                               ~~~~
|   H           Q     E S S     H.                +E  E
|---------------------------|---------------------------|
|---------------------------|---------------------------|
|---2-------------------4h5s|==11----------------(11)p9-|
|---------------------------|---------------------------|
|---------------------------|---------------------------|
|---------------------------|---------------------------|


   +Q     Q    +Q     Q        +Q     Q    +Q          Q
|-(17)---17---(17)---17-----|-(17)---17---(17)--------17---|
|---------------------------|------------------------------|
|---------------------------|------------------------------|
|---------------------------|------------------------------|
|---------------------------|------------------------------|
|---------------------------|------------------------------|
|
|   E  E  E E   E  E  E E       E  E  E E   E     Q      E
|---------------------------|------------------------------|
|---------------------------|------------------------------|
|---------------------------|------------------------------|
|--(7)-7----7------7----7---|------7----7---7-----7------7-|
|---------------------------|------------------------------|
|---5-----5-----5-----5-----|---5-----5-----5--------------|
|
|   ~~~~                        ~~~~                   ~~
|  +H.                E S S     H           S  S  S S  Q
|---------------------------|------------------------------|
|---------------------------|------------------------------|
|--(9)------------------4h5s|==11----------11h12p11p9-11---|
|---------------------------|------------------------------|
|---------------------------|------------------------------|
|---------------------------|------------------------------|


  Gtr I
    W                         W
   +Q     Q    +Q     Q      +Q     Q    +Q     Q
|-(17)---17---(17)---17---|-(17)---17---(17)---17---|
|-------------------------|-------------------------|
|-------------------------|-------------------------|
|-------------------------|-------------------------|
|-------------------------|-------------------------|
|-------------------------|-------------------------|
|
|  +E  E  E E   E  E  E E     E  E  E E   E  Q    E
|-------------------------|-------------------------|
|-------------------------|-------------------------|
|-------------------------|-------------------------|
|--(7)-7----7------7----7-|------7----7---7--7----7-|
|-------------------------|-------------------------|
|---------5-----5-----5---|---5-----5-----5---------|
|
|   ~~~~
|  +W                         W
|-------------------------|-------------------------|
|-------------------------|-------------------------|
|-(11)--------------------|-------------------------|
|-------------------------|-------------------------|
|-------------------------|-------------------------|
|-------------------------|-------------------------|


                                                Bb5  A5
    W                            H           E  Q    E
                                                |    |
                                                /    /

   +Q     Q    +Q     Q         +Q     Q    +Q     Q
|-(17)---17---(17)---17------|-(17)---17---(17)---17----||
|----------------------------|--------------------------||
|----------------------------|--------------------------||
|----------------------------|--------------------------||
|----------------------------|--------------------------||
|----------------------------|--------------------------||
|
|   E  E  E E   E  E  E E        E  E  E E   E  Q    E
|----------------------------|--------------------------||
|----------------------------|--------------------------||
|----------------------------|--------------------------||
|--(7)-7----7------7----7----|------7----7---7--8----7--||
|----------------------------|--------------------------||
|---5-----5-----5-----5------|---5-----5-----5--6----5--||
|
|                                          Gtr III
|                                ~~~~
|   H           Q     E S  S    +H           Q     E E
|----------------------------|--------------------------||
|-----------------------8s10-|-(10)---------------------||
|----------------------------|--------------------------||
|----------------------------|-----------------------7--||
|----------------------------|--------------------------||
|----------------------------|--------------------------||


 Guitar Solo
                                                   Bb5    A5
  Gtr I
   +W                            +H          +E    Q      E
    |                             |           |    |      |
    /                             /           /    /      /

  Gtr IV
   +Q     Q    +Q     Q          +Q     Q    +Q         Q
|-(17)---17---(17)---17-------|-(17)---17---(17)-------17---|
|-----------------------------|-----------------------------|
|-----------------------------|-----------------------------|
|-----------------------------|-----------------------------|
|-----------------------------|-----------------------------|
|-----------------------------|-----------------------------|
|
| Gtr II
|  +E  E  E E   E  E  E   E       E  E  E E   E    Q      E
|-----------------------------|-----------------------------|
|-----------------------------|-----------------------------|
|-----------------------------|-----------------------------|
|--(7)-7----7------7------7---|------7----7--------8------7-|
|-----------------------------|-----------------------------|
|--(5)----5-----5-----5-------|---5-----5-----5----6------5-|
|
|                                 ~~~~
|                     |--3--|                 |--3---|
|  +E  E  Q    +E  E  E E   E    +Q.      E   E  E   E  Q
|-----------------------------|-----------------------------|
|-----------------------------|-----------------------------|
|------5-----------5----5-----|---------------4------4------|
|--(7)----7----(7)----7-----7-|--(7)------5------5------5---|
|-----------------------------|-----------------------------|
|-----------------------------|-----------------------------|


                                                      Bb5     A5
   +W                             +H              +E  Q        E
    |                              |               |  |        |
    /                              /               /  /        /

   +Q       Q     +Q       Q      +Q         Q    +Q        Q
|-(17)-----17----(17)-----17---|-(17)-------17---(17)------17------|
|------------------------------|-----------------------------------|
|------------------------------|-----------------------------------|
|------------------------------|-----------------------------------|
|------------------------------|-----------------------------------|
|------------------------------|-----------------------------------|
|
|  +E  E    E  E   E  E    E E     E    E    E E   E  Q        E
|------------------------------|-----------------------------------|
|------------------------------|-----------------------------------|
|------------------------------|-----------------------------------|
|--(7)-7-------7------7------7-|--------7------7------8--------7---|
|------------------------------|-----------------------------------|
|--(5)------5------5-------5---|---5---------5-----5--6--------5---|
|
|   ~~~~    ~~~            ~~
|  +E  S S  Q.        S S  Q       S  E   S  Q     E  Q       +E
|------------------------------|-----------------------------------|
|------------------------------|-----------------------------------|
|------------------------------|-----------------------------------|
|--(5)---5--------------5------|---5------5--------x--5pb7r===(5)--|
|------7----7---------7----7---|------7------7---------------------|
|------------------------------|-----------------------------------|


                                                       Bb5   A5
   +W                           +H               +E    Q     E
    |                            |                |    |     |
    /                            /                /    /     /

   +Q     Q     +Q     Q        +Q       Q       +Q        Q
|-(17)---17----(17)---17-----|-(17)-----17------(17)------17---|
|----------------------------|---------------------------------|
|----------------------------|---------------------------------|
|----------------------------|---------------------------------|
|----------------------------|---------------------------------|
|----------------------------|---------------------------------|
|
|  +E  E  E E    E  E  E E       E    E  E  E     E    Q     E
|----------------------------|---------------------------------|
|----------------------------|---------------------------------|
|----------------------------|---------------------------------|
|--(7)-7----7-------7----7---|--------7-----7----------5-----7-|
|----------------------------|---------------------------------|
|--(5)----5------5-----5-----|---5-------5--------5----3-----5-|
|
|                                                      ~~
|           |-3--|                          |---3----|
|  +Q.      E.   E. E  E S S     Q      +E  E E      E Q.
|----------------------------|---------------------------------|
|----------------------------|---------------------------------|
|----------------------------|---------------------------------|
|--(5)-----------5-----------|---------------------------------|
|-----------7-------7--5-x-x-|---5pb6r==(5)-3-5--------3-------|
|----------------------------|-----------------------5---------|


                                                          Bb5  A5
   +W                              +H              +E     Q    E
    |                               |               |     |    |
    /                               /               /     /    /

   +Q     Q         +Q     Q       +Q         Q    +Q        Q
|-(17)---17--------(17)---17----|-(17)-------17---(17)------17----|
|-------------------------------|---------------------------------|
|-------------------------------|---------------------------------|
|-------------------------------|---------------------------------|
|-------------------------------|---------------------------------|
|-------------------------------|---------------------------------|
|
|  +E  E  E    E     E  E  E  E     E   E     E E   E     Q    E
|-------------------------------|---------------------------------|
|-------------------------------|---------------------------------|
|-------------------------------|---------------------------------|
|--(7)-7-------7--------7-----7-|-------7-------7---------8----7--|
|-------------------------------|---------------------------------|
|--(5)----5----------5-----5----|---5---------5-----5-----6----5--|
|
|                    ~~~~               TP                ~
|   Q    +S  S S S   Q    +E  E     E   Q.         +E     Q    E
|-------------------------------|---------------------------------|
|-------------------------------|---------------------------------|
|-------------------------------|---------------------------------|
|--------------------4----(4)S2-|---4b5-4pb5-------(4)pb5r2----1--|
|------------3-5-6--------------|---------------------------------|
|---5----(5)--------------------|---------------------------------|


                                                        Bb5  A5
   +W                           +H                 +E   Q    E
    |                            |                  |   |    |
    /                            /                  /   /    /

   +Q     Q    +Q      Q        +Q         Q       +Q      Q
|-(17)---17---(17)----17-----|-(17)-------17------(17)----17---|
|----------------------------|---------------------------------|
|----------------------------|---------------------------------|
|----------------------------|---------------------------------|
|----------------------------|---------------------------------|
|----------------------------|---------------------------------|
|
|  +E  E  E E   E   E  E   E     E   E     E    E   E   Q    E
|----------------------------|---------------------------------|
|----------------------------|---------------------------------|
|----------------------------|---------------------------------|
|--(7)-7----7-------7------7-|-------7----------7-------8----7-|
|----------------------------|---------------------------------|
|--(5)----5-----5------5-----|---5---------5--------5---6----5-|
|
|  +E  E  E E   E   E  E   E     E   E     S  S E   e   Q    E
|----------------------------|---------------------------------|
|----------------------------|---------------------------------|
|-------------------2------2-|---------------------------------|
|--(1)-2--1-2---4b5----4b5---|---1b2-1pb2--1rh2-----1b2--------|
|----------------------------|------------------3-------3------|
|----------------------------|-------------------------------5-|


                                                               Bb5    A5
   +W                                    +H                +E  Q      E
    |                                     |                 |  |      |
    /                                     /                 /  /      /

   +Q     Q          +Q           Q      +Q     Q          +Q       Q
|-(17)---17---------(17)---------17---|-(17)---17---------(17)-----17----|
|-------------------------------------|----------------------------------|
|-------------------------------------|----------------------------------|
|-------------------------------------|----------------------------------|
|-------------------------------------|----------------------------------|
|-------------------------------------|----------------------------------|
|
|  +E  E  E   E       E      E    E E     E  E  E    E      E  Q      E
|-------------------------------------|----------------------------------|
|-------------------------------------|----------------------------------|
|-------------------------------------|----------------------------------|
|--(7)-7------7--------------7------7-|------7-------7---------5------7--|
|-------------------------------------|----------------------------------|
|--(5)----5-----------5-----------5---|---5-----5-----------5--3------5--|
|
|                                                    ~~~~~
|  +E  E  S S S S    +S  T T S S  e E     Q     S S +Q         S S  Q
|-------------------------------------|----------------------------------|
|-------------------------------------|----------------------------------|
|-------------------------------------|-----------7-(7)b9----------------|
|-----------------------------------5s|===7-----5--------------7p5--7----|
|-----------3-5-5b6r=(5)-3---3-5s=7---|----------------------------------|
|--(5)-3--5----------------5----------|----------------------------------|


                                                        Bb5    A5
   +W                             +H                +E  Q      E
    |                              |                 |  |      |
    /                              /                 /  /      /

   +Q         Q    +Q      Q      +Q        Q       +Q       Q
|-(17)-------17---(17)----17---|-(17)------17------(17)-----17---|
|------------------------------|---------------------------------|
|------------------------------|---------------------------------|
|------------------------------|---------------------------------|
|------------------------------|---------------------------------|
|------------------------------|---------------------------------|
|
|   E  E      E E   E   E  E E     E     E  E    E   E  Q      E
|------------------------------|---------------------------------|
|------------------------------|---------------------------------|
|------------------------------|---------------------------------|
|---7--7--------7-------7----7-|---------7-------7------8------7-|
|------------------------------|---------------------------------|
|---5---------5-----5------5---|---5--------5--------5--6------5-|
|
|      |-3-|
|  +E  S S S  E E   H             +E     E  Q       +e  Q      E
|------------------------------|---------------------------------|
|------------------------------|---------------------------------|
|------------------------------|---------------------------------|
|--(7)-5-7---------------------|---------5---------------------5-|
|----------7s=5-3---5b6--------|--(5)pb6----5pb6r===(5)-5b6------|
|------------------------------|---------------------------------|


                                                       Bb5  A5
   +W                           +H                +E   Q    E
    |                            |                 |   |    |
    /                            /                 /   /    /

   +Q       Q    +Q     Q       +Q         Q      +Q      Q
|-(17)-----17---(17)---17----|-(17)-------17-----(17)----17----||
|----------------------------|---------------------------------||
|----------------------------|---------------------------------||
|----------------------------|---------------------------------||
|----------------------------|---------------------------------||
|----------------------------|---------------------------------||
|
|                                          |-3-|
|  +E    E  E E   E  E  E  E     E    E    E E E   E   Q    E
|----------------------------|---------------------------------||
|----------------------------|---------------------------------||
|----------------------------|---------------------------------||
|--(7)---7----7------7-----7-|--------7------------5---8----7--||
|----------------------------|-------------5h6h7---------------||
|--(5)------5-----5-----5----|---5---------------------6----5--||
|
|                                |--3---|  |-3-|
|   H.                 +E  E     E  E   E  E E E   e   Q    E
|----------------------------|---------------------------------||
|----------------------------|---------------------------------||
|----------------------------|---------------------------------||
|----------------------------|---------------------------------||
|---5pb6r==============(5)-3-|---5------3--5-3-5---5b7-3-------||
|----------------------------|------5-----------------------5--||


 Outro
  Gtr I
  +W           +W                W           W
   |            |
   /            /

  Gtr II
                                 >
  +W           +W               +W           Wx10
|------------|----------------|------------|---------*|
|------------|----------------|------------|---------*|
|------------|----------------|------------|---------*|
|-(7)--------|-(7)------------|-(7)--------|---------*|
|------------|----------------|------------|---------*|
|-(5)--------|-(5)------------|-(5)--------|---------*|
|
| Gtr III
| +W           +H.      +E  E    W           Wx10
|------------|----------------|------------|---------*|
|------------|----------------|------------|---------*|
|------------|----------------|------------|---------*|
|------------|----------------|------------|---------*|
|------------|----------------|------------|---------*|
|-(5)--------|-(5)------(5)---|------------|---------*|



Duration Legend
---------------
W - whole; H - half; Q - quarter; E - 8th; S - 16th; T - 32nd; X - 64th; a - acciaccatura
+ - note tied to previous; . - note dotted; .. - note double dotted
Uncapitalized letters represent notes that are staccato (1/2 duration)
Irregular groupings are notated above the duration line
Duration letters will always appear directly above the note/fret number it represents the
duration for.  Duration letters with no fret number below them represent rests.  Multi-
bar rests are notated in the form Wxn, where n is the number of bars to rest for.  Low
melody durations appear below the staff

Tablature Legend
----------------
 h   - hammer-on
 p   - pull-off
 b   - bend
 pb  - pre-bend
 r   - bend release (if no number after the r, then release immediately)
 /\  - slide into or out of (from/to "nowhere")
 s   - legato slide
 S   - shift slide
 - natural harmonic
[n]  - artificial harmonic
n(n) - tapped harmonic
 ~   - vibrato
 tr  - trill
 T   - tap
 TP  - trem. picking
 PM  - palm muting
\n/  - tremolo bar dip; n = amount to dip
 \n  - tremolo bar down
 n/  - tremolo bar up
/n\  - tremolo bar inverted dip
 =   - hold bend; also acts as connecting device for hammers/pulls
 <> - volume swell (louder/softer)
 x   - on rhythm slash represents muted slash
 o   - on rhythm slash represents single note slash

Misc Legend
-----------
 |  - bar
||  - double bar
||o - repeat start
o|| - repeat end
*|  - double bar (ending)
 :  - bar (freetime)
 $  - Segno
 &  - Coda
Tempo markers -  = BPM(8/16=s8/s16), where s8 = swing 8ths, s16 = swing 16ths


            
            
Suggest correction
Creating personal tab
Creating personal tab
You can edit any tab online and save it as your Personal.

You can edit, replace or remove any tab part or add personal notes – all changes will be seen only by you.

Personal tabs can be accessed anytime from any device, even offline.
Learn more »
comments
print report bad tab
3 comments total.
0 reply
superfrood2000 50 May 21, 2015 07:46 AM

not sure what nixhex is on - this is a pretty good tab. i think the timing on the F chords in the chorus is wrong but it's easy to hear what it should be.

i think the solo backing is wrong. it sounds to me like it should be A5-G5 (not G5-F5 as you have it) and then the C5/D5 slidey riff.

guest
You may want to rate the tab now too:
select rating
Wanna post a correction for this tab? Suggest correction