Oops, an error
Loading. Please wait.

Gonna Leave You bass

version 2
version 2

Whole song

Interactive

166 views 1 this week
no commentswrite comment
1 2 3 4 5
2 more votes to show rating
add to favorites
×
Save as Personal and add changes to this tab that will be seen only by you. Learn more ›
×
You can save this tab as Personal to edit and correct it or add notes. All changes will be seen only by you. Learn more »
launch autoscroll
font size
0
reset
guitar tuner
backing track
0:00
0:00
edit
Autoscroll
slow
fast
+/-
esc
set tempo
stop
Author
Gonna Leave You by Queens of the Stone Age
From the album Songs for the Deaf (2002)
Written by Joshua Homme and Nick Oliveri
All rights belong to their respective owners

Tabbed by Jaakko Karppinen


What an easy and fun song play! Simple root notes and lots of room for improvising.
I took the playing positions form live footage, but of course you can play it on
other positions (like playing the 10th fret D note at the 5th fret). Enjoy!


 [Intro]
G|-----|
D|-----|
A|-<7>-| (I don't know if this bit is just noise but playing this sounds pretty much the same)
E|-----|

G|------------------------------------------------------------------|
D|------------------------------------------------------------------|
A|------------------------------------------------------------------|
E|-7---7---7---7---7---7---7---7---7---7---7---7---7---7---7---7----|


 [Verse Riff]
G||--------------------------------------------------------------------|
D||-o------------------------------------------------------------------|
A||-o------------------------------------------------------------------|
E||---7---7---7---7---7---5---7---5---10--10--10--10--10--10--10--10---|

G|------------------------------------------------------------------|
D|------------------------------------------------------------------|
A|-------------------------------------8-------8-------8-------8----|
E|-7---7---7---7---7---7---7---7---6-------6-------6-------6--------|

G|------------------------------------------------------------------|
D|------------------------------------------------------------------|
A|------------------------------------------------------------------|
E|-7---7---7---7---7---5---7---5---10--10--10--10--10--10--10--10---|

G|--------------------------------------------------------------------||
D|---------------------9-------9-----------------------9-------9----o-||
A|------------------------------------------------------------------o-||
E|-7---7---7---7---7-------7-------7---7---7---7---7-------7----------||


 [Pre-Chorus]
G||----------------------------------------------------------------------||
D||-o------------------------------------------------------------------o-||
A||-o-------------------------------------4-------4-------4-------4----o-|| 3X
E||---3---3---3---3---3---3---3---3---2-------2-------2-------2----------||

G|------------------------------------------------------------------|
D|------------------------------------------------------------------|
A|-----5-------5-------5-------5-------7-------7-------7-------7----|
E|-3-------3-------3-------3-------5-------5-------5-------5--------|


 [Chorus A]
G||--------------------------------------------------------------------|
D||-o------------------------------------------------------------------|
A||-o------------------------------------------------------------------|
E||---7---7---7---7---7---7---7---7---10--10--10--10--10--10--10--10---|

G|--------------------------------------------------------------------||
D|------------------------------------------------------------------o-||
A|-------------------------------------4-------4-------4-------4----o-||
E|-3---3---3---3---3---3---3---3---2-------2-------2-------2----------||


 [Verse Riff] ONCE!


 [Pre-Chorus]


 [Chorus A]


 [Chorus B]
G||--------------------------------------------------------------------|
D||-o------------------------------------------------------------------|
A||-o------------------------------------------------------------------|
E||---7---7---7---7---7---7---7---7---10--10--10--10--10--10--10--10---|

G|--------------------------------------------------------------------||
D|------------------------------------------------------------------o-||
A|------------------------------------------------------------------o-||
E|-3---3---3---3---3---3---3---3---2---2---2---2---2---2---2---2------||


 [Guitar Solo]
G|------------------------------------------------------------------|
D|------------------------------------------------------------------|
A|-----------------------------------------12------12------12-------|
E|-7---R---5-/-7---R---5-/-7---R-------10------10------10------10---|

G|------------------------------------------------------------------|
D|------------------------------------------------------------------|
A|-----------------------------------------12------12------12-------|
E|-7---R---7---7---R---7---7---R-------10------10------10------10---|

G|------------------------------------------------------------------|
D|------------------------------------------------------------------|
A|-----------------------------------------12------12------12-------|
E|-7---R---7---7---5---5---7---R-------10------10------10------10---|

G|------------------------------------------------------------------|
D|-------------------------9-----------9---9-------9---9---9---9----|
A|------------------------------------------------------------------|
E|-7---R---7---7---R---7-------R---------------7--------------------|


 [Pre-Chorus]


 [Chorus A]


 [Chorus B / Outro]
G|------------------------------------------------------------------|
D|------------------------------------------------------------------|
A|------------------------------------------------------------------|
E|-7---7---7---7---7---7---7---7---10--10--10--10--10--10--10--10---|

G|------------------------------------------------------------------|
D|------------------------------------------------------------------|
A|------------------------------------------------------------------|
E|-3---3---3---3---3---3---3---3---2---2---2---2---2---2---2---2----|

G|------------------------------------------------------------------|
D|------------------------------------------------------------------|
A|------------------------------------------------------------------|
E|-7---7---7---7---7---7---7---7---10--10--10--10--10--10--10--10---|

G|------------------------------------------------------------------| |------|
D|------------------------------------------------------------------| |------|
A|------------------------------------------------------------------| |------|
E|-3---3---3---3---3---3---3---3---5---5---5---5---5---5---5---5----| |-7----|



************************************

Legend:    
R = rest    
<7> = harmonic    
/ = slide up 

************************************

            
            
Suggest correction
Creating personal tab
Creating personal tab
You can edit any tab online and save it as your Personal.

You can edit, replace or remove any tab part or add personal notes – all changes will be seen only by you.

Personal tabs can be accessed anytime from any device, even offline.
Learn more »
Give kudos to tab author, rate the tab!
1 2 3 4 5
comments
print report bad tab
guest
You may want to rate the tab now too:
select rating
Wanna post a correction for this tab? Suggest correction