Oops, an error
Loading. Please wait.

Head Like A Haunted House tab

version 1
version 1

Whole song

  • This is a complete version, with the dual guitar parts for the intro and outro.
3,829 views 570 this week
no commentswrite comment
1 2 3 4 5
x 9
add to favorites
×
Save as Personal and add changes to this tab that will be seen only by you. Learn more ›
×
You can save this tab as Personal to edit and correct it or add notes. All changes will be seen only by you. Learn more »
launch autoscroll
font size
0
reset
how to read this tab
guitar tuner
edit
Autoscroll
slow
fast
+/-
esc
set tempo
stop
About this tab version
This is a complete version, with the dual guitar parts for the intro and outro. Was this info helpful? Yes No
[Intro]

Guitar 1

e|---------------------------------------------------------|
B|---10---12br-10\8-10\8-----------------------------------|
G|------9----------------7/9\7---5-9-----------------------|
D|-----------------------------------7-7---10-10-9-9-7-7---|
A|---------------------------------------------------------|
E|---------------------------------------------------------|

Guitar 2

e|--------------------------------------------------------------------------|
B|--------------------------------------------------------------------------|
G|--------------------------------------------------------------------------|
D|---10-10--9-9--12-12--11-11--5-5--4-4---10-10--9-9--2-2---5-5--4-4--2-2---|
A|---8--8---7-7--10-10--9--9---3-3--2-2---8--8---7-7--0-0---3-3--2-2--0-0---|
E|--------------------------------------------------------------------------|


[Verse]

Both Guitars

e|-<12>--------------------------------------------------------|
B|-------------------------------------------------------------|
G|--------x-x-x-x--------x-x-x-x------x-x-x-x--------x-x-x-x---|
D|--------x-x-x-x--------x-x-x-x------x-x-x-x--------x-x-x-x---|
A|--------x-x-x-x--------x-x-x-x------x-x-x-x--------x-x-x-x---|
E|-------------------------------------------------------------|

e|----------------------------------------|
B|----------------------------------------|
G|----------------------------------------|
D|---10-10-10-10-10-10-10-10--7-7/10-7\---|
A|---8--8--8--8--8--8--8--8---5-5/8--5\---|
E|----------------------------------------|

e|-----------------------------|
B|-----------------------------|
G|---7/9-------------5-x-5-5---|
D|---5/7--7/9--7/9---5-x-5-5---|
A|--------5/7--5/7---3-x-3-3---|
E|-----------------------------|

e|-----------------------------|
B|-----------------------------|
G|---7/9-------------5-x-5-5---|
D|---5/7--7/9--7/9---5-x-5-5---|
A|--------5/7--5/7---3-x-3-3---|
E|-----------------------------|

e|-----------------------------|
B|-----------------------------|
G|---7/9-------------5-x-5-5---|
D|---5/7--7/9--7/9---5-x-5-5---|
A|--------5/7--5/7---3-x-3-3---|
E|-----------------------------|

e|----------------------------------------|
B|----------------------------------------|
G|----------------------------------------|
D|---10-10-10-10-10-10-10-10--7-7/10-7\---|
A|---8--8--8--8--8--8--8--8---5-5/8--5\---|
E|----------------------------------------|

Vocals Come in Here.

e|-----------------------------|
B|-----------------------------|
G|---7/9-------------5-x-5-5---|
D|---5/7--7/9--7/9---5-x-5-5---|
A|--------5/7--5/7---3-x-3-3---|
E|-----------------------------|

e|-----------------------------|
B|-----------------------------|
G|---7/9-------------5-x-5-5---|
D|---5/7--7/9--7/9---5-x-5-5---|
A|--------5/7--5/7---3-x-3-3---|
E|-----------------------------|

e|-----------------------------|
B|-----------------------------|
G|---7/9-------------5-x-5-5---|
D|---5/7--7/9--7/9---5-x-5-5---|
A|--------5/7--5/7---3-x-3-3---|
E|-----------------------------|

e|----------------------------------------|
B|----------------------------------------|
G|----------------------------------------|
D|---10-10-10-10-10-10-10-10--7-7/10-7\---|
A|---8--8--8--8--8--8--8--8---5-5/8--5\---|
E|----------------------------------------|

e|-----------------------------|
B|-----------------------------|
G|---7/9-------------5-x-5-5---|
D|---5/7--7/9--7/9---5-x-5-5---|
A|--------5/7--5/7---3-x-3-3---|
E|-----------------------------|

e|-----------------------------|
B|-----------------------------|
G|---7/9-------------5-x-5-5---|
D|---5/7--7/9--7/9---5-x-5-5---|
A|--------5/7--5/7---3-x-3-3---|
E|-----------------------------|

e|-----------------------------|
B|-----------------------------|
G|---7/9-------------5-x-5-5---|
D|---5/7--7/9--7/9---5-x-5-5---|
A|--------5/7--5/7---3-x-3-3---|
E|-----------------------------|

e|----------------------------------------|
B|----------------------------------------|
G|----------------------------------------|
D|---10-10-10-10-10-10-10-10--7-7/10-7\---|
A|---8--8--8--8--8--8--8--8---5-5/8--5\---|
E|----------------------------------------|

e|----------------------------------------|
B|----------------------------------------|
G|----------------------------------------|
D|---10-10-10-10-10-10-10-10--7-7/10-7\---|
A|---8--8--8--8--8--8--8--8---5-5/8--5\---|
E|----------------------------------------|

e|----------------------------------------|
B|----------------------------------------|
G|----------------------------------------|
D|---10-10-10-10-10-10-10-10--7-7/10-7\---|
A|---8--8--8--8--8--8--8--8---5-5/8--5\---|
E|----------------------------------------|

e|----------------------------------------|
B|----------------------------------------|
G|----------------------------------------|
D|---10-10-10-10-10-10-10-10--7-7/10-7\---|
A|---8--8--8--8--8--8--8--8---5-5/8--5\---|
E|----------------------------------------|

e|----------------------------------------------<3>-<3>--------------|
B|----------------------------------------------<3>-<3>--------------|
G|--------x-x-x-x--------x-x-x-x------x-x-x-x---<3>-<3>----x-x-x-x---|
D|--------x-x-x-x--------x-x-x-x------x-x-x-x---<3>--------x-x-x-x---|
A|--------x-x-x-x--------x-x-x-x------x-x-x-x---<3>--------x-x-x-x---|
E|-------------------------------------------------------------------|

e|-----------------------------|
B|-----------------------------|
G|---7/9-------------5-x-5-5---|
D|---5/7--7/9--7/9---5-x-5-5---|
A|--------5/7--5/7---3-x-3-3---|
E|-----------------------------|

e|-----------------------------|
B|-----------------------------|
G|---7/9-------------5-x-5-5---|
D|---5/7--7/9--7/9---5-x-5-5---|
A|--------5/7--5/7---3-x-3-3---|
E|-----------------------------|

e|-----------------------------|
B|-----------------------------|
G|---7/9-------------5-x-5-5---|
D|---5/7--7/9--7/9---5-x-5-5---|
A|--------5/7--5/7---3-x-3-3---|
E|-----------------------------|

e|----------------------------------------|
B|----------------------------------------|
G|----------------------------------------|
D|---10-10-10-10-10-10-10-10--7-7/10-7\---|
A|---8--8--8--8--8--8--8--8---5-5/8--5\---|
E|----------------------------------------|

e|-----------------------------|
B|-----------------------------|
G|---7/9-------------5-x-5-5---|
D|---5/7--7/9--7/9---5-x-5-5---|
A|--------5/7--5/7---3-x-3-3---|
E|-----------------------------|

e|-----------------------------|
B|-----------------------------|
G|---7/9-------------5-x-5-5---|
D|---5/7--7/9--7/9---5-x-5-5---|
A|--------5/7--5/7---3-x-3-3---|
E|-----------------------------|

e|-----------------------------|
B|-----------------------------|
G|---7/9-------------5-x-5-5---|
D|---5/7--7/9--7/9---5-x-5-5---|
A|--------5/7--5/7---3-x-3-3---|
E|-----------------------------|

e|----------------------------------------|
B|----------------------------------------|
G|----------------------------------------|
D|---10-10-10-10-10-10-10-10--7-7/10-7\---|
A|---8--8--8--8--8--8--8--8---5-5/8--5\---|
E|----------------------------------------|

e|----------------------------------------|
B|----------------------------------------|
G|----------------------------------------|
D|---10-10-10-10-10-10-10-10--7-7/10-7\---|
A|---8--8--8--8--8--8--8--8---5-5/8--5\---|
E|----------------------------------------|

e|----------------------------------------|
B|----------------------------------------|
G|----------------------------------------|
D|---10-10-10-10-10-10-10-10--7-7/10-7\---|
A|---8--8--8--8--8--8--8--8---5-5/8--5\---|
E|----------------------------------------|

e|---------------------------------|
B|---------------------------------|
G|---------------------------------|
D|---10-10-10-10-10-10-10-10--7\---|
A|---8--8--8--8--8--8--8--8---5\---|
E|---------------------------------|

[Chorus]

e|-------------------------------------------------3-x-3-3-x-3-3-x-3-3---------------------------------------|
B|-3-x-3-3-x-3-3-x-3-3-x-----x-----x-----x-----x---3-x-3-3-x-3-3-x-3-3---------------------------------------|
G|-3-x-3-3-x-3-3-x-3-3-x-5-5-x-5-5-x-5-5-x-5-5-x-5-4-x-4-4-x-4-4-x-4-4---------------------------------------|
D|-3-x-3-3-x-3-3-x-3-3-x-6-6-x-6-6-x-6-6-x-6-6-x-6-5-x-5-5-x-5-5-x-5-5--8-8-10-8-11-8-10-8-11-8-10-8-11-8-10-|
A|-1-x-1-1-x-1-1-x-1-1-x-6-6-x-6-6-x-6-6-x-6-6-x-6-5-x-5-5-x-5-5-x-5-5--6-6-6--6-6--6-6--6-6--6-6--6-6--6-6--|
E|-----------------------4-4-x-4-4-x-4-4-x-4-4-x-4-3-x-3-3-x-3-3-x-3-3---------------------------------------|

e|-------------------------------------------------3-x-3-3-x-3-3-x-3-3---------------------------------------|
B|-3-x-3-3-x-3-3-x-3-3-x-----x-----x-----x-----x---3-x-3-3-x-3-3-x-3-3---------------------------------------|
G|-3-x-3-3-x-3-3-x-3-3-x-5-5-x-5-5-x-5-5-x-5-5-x-5-4-x-4-4-x-4-4-x-4-4---------------------------------------|
D|-3-x-3-3-x-3-3-x-3-3-x-6-6-x-6-6-x-6-6-x-6-6-x-6-5-x-5-5-x-5-5-x-5-5--8-8-10-8-11-8-10-8-11-8-10-8-11-8-10-|
A|-1-x-1-1-x-1-1-x-1-1-x-6-6-x-6-6-x-6-6-x-6-6-x-6-5-x-5-5-x-5-5-x-5-5--6-6-6--6-6--6-6--6-6--6-6--6-6--6-6--|
E|-----------------------4-4-x-4-4-x-4-4-x-4-4-x-4-3-x-3-3-x-3-3-x-3-3---------------------------------------|

e|-------------------------------------------------3-x-3-3-x-3-3-x-3-3---------------------------------------|
B|-3-x-3-3-x-3-3-x-3-3-x-----x-----x-----x-----x---3-x-3-3-x-3-3-x-3-3---------------------------------------|
G|-3-x-3-3-x-3-3-x-3-3-x-5-5-x-5-5-x-5-5-x-5-5-x-5-4-x-4-4-x-4-4-x-4-4---------------------------------------|
D|-3-x-3-3-x-3-3-x-3-3-x-6-6-x-6-6-x-6-6-x-6-6-x-6-5-x-5-5-x-5-5-x-5-5--8-8-10-8-11-8-10-8-11-8-10-8-11-8-10-|
A|-1-x-1-1-x-1-1-x-1-1-x-6-6-x-6-6-x-6-6-x-6-6-x-6-5-x-5-5-x-5-5-x-5-5--6-6-6--6-6--6-6--6-6--6-6--6-6--6-6--|
E|-----------------------4-4-x-4-4-x-4-4-x-4-4-x-4-3-x-3-3-x-3-3-x-3-3---------------------------------------|

e|-------------------------------------------------3-x-3-3-x-3-3-x-3-3----------------------------|
B|-3-x-3-3-x-3-3-x-3-3-x-----x-----x-----x-----x---3-x-3-3-x-3-3-x-3-3----------------------------|
G|-3-x-3-3-x-3-3-x-3-3-x-5-5-x-5-5-x-5-5-x-5-5-x-5-4-x-4-4-x-4-4-x-4-4----------------------------|
D|-3-x-3-3-x-3-3-x-3-3-x-6-6-x-6-6-x-6-6-x-6-6-x-6-5-x-5-5-x-5-5-x-5-5--8-8-x-8-8-x-8-8-x---------|
D|-1-x-1-1-x-1-1-x-1-1-x-6-6-x-6-6-x-6-6-x-6-6-x-6-5-x-5-5-x-5-5-x-5-5--6-6-x-6-6-x-6-6-x-7-6-5---|
E|-----------------------4-4-x-4-4-x-4-4-x-4-4-x-4-3-x-3-3-x-3-3-x-3-3----------------------------|

[Guitar Solo]

e|-----------------------------------------------------------------------------------------------|
B|---5-----10-------5----5----------------------------------8-10-10b-10b-10br-10br-10br-8-10-7---|
G|---7br---12br--7b---7b---7brp5--3b----------5-7p5---5-7/9--------------------------------------|
D|----------------------------------------5-7-------7--------------------------------------------|
A|-----------------------------------------------------------------------------------------------|
E|-----------------------------------------------------------------------------------------------|

e|-------17-----17-------------12---------15b-15-15b-15-15b-15-12------------|
B|---20b----20b----13-14-15-16----13b-13b-------------------------15b--15b---|
G|---------------------------------------------------------------------------|
D|---------------------------------------------------------------------------|
A|---------------------------------------------------------------------------|
E|---------------------------------------------------------------------------|

Pick this part as fast as possible.

e|---------------------------------------------------------------------------|
B|-13-13-13-13-13-13-13-13-15-15-15-15-16-16-16-16-17-17-17-17-17-17-17-17---|
G|---------------------------------------------------------------------------|
D|---------------------------------------------------------------------------|
A|---------------------------------------------------------------------------|
E|---------------------------------------------------------------------------|

e|---19b-19-19b-19-19b-19-17-------|
B|---------------------------17b---|
G|---------------------------------|
D|---------------------------------|
A|---------------------------------|
E|---------------------------------|

[Verse]

e|-----------------------|
B|-----------------------|
G|-----------------------|
D|-----------------------|
A|-----------------------|
E|--/5~~~-3~~~-/17-\15---|

e|-----------------------|
B|-----------------------|
G|-----------------------|
D|-----------------------|
A|-----------------------|
E|--/5~~~-3~~~-/17-\15---|

e|-----------------------------|
B|-----------------------------|
G|-----------------------------|
D|-----------------------------|
A|-----------------------------|
E|---5~~~-/15--(15)h17-15~~~---|

e|----------------------------------------|
B|----------------------------------------|
G|----------------------------------------|
D|---10-10-10-10-10-10-10-10--7-7/10-7\---|
A|---8--8--8--8--8--8--8--8---5-5/8--5\---|
E|----------------------------------------|

e|-----------------------------|
B|-----------------------------|
G|---7/9-------------5-x-5-5---|
D|---5/7--7/9--7/9---5-x-5-5---|
A|--------5/7--5/7---3-x-3-3---|
E|-----------------------------|

e|-----------------------------|
B|-----------------------------|
G|---7/9-------------5-x-5-5---|
D|---5/7--7/9--7/9---5-x-5-5---|
A|--------5/7--5/7---3-x-3-3---|
E|-----------------------------|

e|-----------------------------|
B|-----------------------------|
G|---7/9-------------5-x-5-5---|
D|---5/7--7/9--7/9---5-x-5-5---|
A|--------5/7--5/7---3-x-3-3---|
E|-----------------------------|

e|----------------------------------------|
B|----------------------------------------|
G|----------------------------------------|
D|---10-10-10-10-10-10-10-10--7-7/10-7\---|
A|---8--8--8--8--8--8--8--8---5-5/8--5\---|
E|----------------------------------------|

e|----------------------------------------|
B|----------------------------------------|
G|----------------------------------------|
D|---10-10-10-10-10-10-10-10--7-7/10-7\---|
A|---8--8--8--8--8--8--8--8---5-5/8--5\---|
E|----------------------------------------|

e|----------------------------------------|
B|----------------------------------------|
G|----------------------------------------|
D|---10-10-10-10-10-10-10-10--7-7/10-7\---|
A|---8--8--8--8--8--8--8--8---5-5/8--5\---|
E|----------------------------------------|

e|---------------------------------|
B|---------------------------------|
G|---------------------------------|
D|---10-10-10-10-10-10-10-10--7\---|
A|---8--8--8--8--8--8--8--8---5\---|
E|---------------------------------|


[Outro]

e|----------------------------------------------------------|
B|----------------------------------------------------------|
G|----------------------------------------------------------|
D|---10-10--9-9--12-12--11-11--5-5--4-4---10-10--9-9--2-2---|
A|---8--8---7-7--10-10--9--9---3-3--2-2---8--8---7-7--0-0---|
E|----------------------------------------------------------|

Guitar 1

e|-----------------------------------------|
B|---10---12br-10\8-10\8-------------------|
G|------9----------------7/9\7---5-9-------|
D|-----------------------------------7-7---|
A|-----------------------------------------|
E|-----------------------------------------|

Guitar 2

e|----------------------------------------------------------|
B|----------------------------------------------------------|
G|----------------------------------------------------------|
D|---10-10--9-9--12-12--11-11--5-5--4-4---10-10--9-9--2-2---|
A|---8--8---7-7--10-10--9--9---3-3--2-2---8--8---7-7--0-0---|
E|----------------------------------------------------------|

Guitar 1

e|-----------------------------------------|
B|---10---12br-10\8-10\8-------------------|
G|------9----------------7/9\7---5-9-------|
D|-----------------------------------7-7---|
A|-----------------------------------------|
E|-----------------------------------------|

Guitar 2

e|----------------------------------------------------------|
B|----------------------------------------------------------|
G|----------------------------------------------------------|
D|---10-10--9-9--12-12--11-11--5-5--4-4---10-10--9-9--2-2---|
A|---8--8---7-7--10-10--9--9---3-3--2-2---8--8---7-7--0-0---|
E|----------------------------------------------------------|

Guitar 1

e|--------------------|
B|--------------------|
G|--------------------|
D|---10-10-9-9-7-7\---|
A|--------------------|
E|--------------------|

Guitar 2

e|---8-8-7-7-5-5\---|
B|------------------|
G|------------------|
D|------------------|
A|------------------|
E|------------------|


************************************

| x   Dead note
| (n) Ghost note
| h   Hammer-on
| p   Pull-off
| r   Release
| b   Bend
| br  Bend release
| /   Slide up
| \   Slide down
| ~   Vibrato

************************************

            
            
Suggest correction
Creating personal tab
Creating personal tab
You can edit any tab online and save it as your Personal.

You can edit, replace or remove any tab part or add personal notes – all changes will be seen only by you.

Personal tabs can be accessed anytime from any device, even offline.
Learn more »
comments
print report bad tab
guest
You may want to rate the tab now too:
select rating
Wanna post a correction for this tab? Suggest correction