Oops, an error
Loading. Please wait.

I Appear Missing Tab

version 1
version 1

Whole song

Interactive

85,050 views 174 this week
10 commentsread comments
1 2 3 4 5
x 32
add to favorites
launch autoscroll
font size
0
reset
how to read this tab
guitar tuner
Autoscroll
slow
fast
+/-
esc
set tempo
stop
Help us to improve Ultimate-Guitar.com Take our survey!
×
Author
-----------------------------------------------------------------
I Appear Missing - Queens of the Stone Age
-----------------------------------------------------------------
Tabbed by:funkymonk66
Email:sam@mwosb.co.uk

Tuning:Standard

This is the updated tab for the full song.
I did this by ear so it may not be completely accurate. Listen to the song for timings. Enjoy!!


[Intro/Verse]
e||--9-------9-----9-7-------7---------------11-----11---------12-----12-|
B||*-----9-----9---------9-----9---9---8---8----8--------9---9----9------|
G||----9---9-----9-----9---9-----9---8---8--------8----9---9--------9----|
D||----------------------------------------------------------------------|
A||*---------------------------------------------------------------------|
E||----------------------------------------------------------------------|

e|-9-------9-----9-7-------7---------------11-----11----------------||
B|-----9-----9---------9-----9-------8---8----8------12--12--10--9-*||
G|---9---9-----9-----9---9-----9-9-8---8--------8-------------------||
D|------------------------------------------------------------------||
A|-----------------------------------------------------------------*||
E|------------------------------------------------------------------||


[Chorus]
e|---------------------------------------|
B|---------------------------------------|
G|--------------------------------13-----|
D|-----11-------11-------11-------11-----|
A|-0-0----0-0-0----0-0-0----0-0-0----0-0-|
E|---------------------------------------|

e||------------------------------------------------------------------------------------||
B||*----------------------------------------------------------------------------------*||
G||----------13------13-11-------11---9/13---------------------------------------------||
D||-----11------11-----------7-----------------------11------11-------------13-14--11--||
A||*--0----0-------0-------0---0----0--------11---11----11---------13----13-----------*||
E||----------------------------------------9----9----------9----11----11---------------||

e|---------------------------------------|
B|---------------------------------------|
G|---------------------------------------|
D|-----11-------11-------11-------11-----|
A|-0-0----0-0-0----0-0-0----0-0-0----0-0-|
E|---------------------------------------|


[Intro/Verse riff] x4


e|---------------------------------------|
B|---------------------------------------|
G|---------------------------------------|
D|-----11-------11-------11-------11-----|
A|-0-0----0-0-0----0-0-0----0-0-0----0-0-|
E|---------------------------------------|


[Bridge]
e||--------------------------------------------------||
B||*------------------------------------------------*||
G||--------------------------------------------------||
D||-----11------11------11---11-11-11h13---11---9----||
A||*-0-------9-------7------------------------------*||
E||--------------------------9--9--9-----9----7------||


[Transition]
e||------------------------------------------------------------------------------------||
B||*----------------------------------------------------------------------------------*||
G||----------13------13-11-------11---9/13---------------------------------------------||
D||-----11------11-----------7-----------------------11------11-------------13-14--11--||
A||*--0----0-------0-------0---0----0--------11---11----11---------13----13-----------*||
E||----------------------------------------9----9----------9----11----11---------------||

e|-----------------------------------------------------------|
B|-----------------------------------------------------------|
G|-----------------------------------------------------------|
D|-----11-------11-------------11------11-------------13-14--|
A|-0-0----0-0-0----0---11---11----11---------13----13--------|
E|-------------------9----9----------9----11----11-----------|


e|---------------------------------------|
B|---------------------------------------|
G|---------------------------------------|
D|-----11-------11-------11-------11-----|
A|-0-0----0-0-0----0-0-0----0-0-0----0-0-|
E|---------------------------------------|


e||--------------------------------------||
B||*------------------------------------*||
G||--------------------------------------||  x8
D||-------11-------11------11-------11---||
A||*---11-------11------11-------11-----*||
E||--9-------10-------9-------10---------||

e|----|
B|----|
G|----|
D|-11-|
A|-11-|
E|-9--|

e|---------------------------------------------------------------|
B|---------------------------------------------------------------|
G|---------8-----8-----------9-11b12-----------------------------|
D|---8---8---8-------9----11-------------------------------------|
A|-6---6-------6---7---7-----------------------------------------|
E|---------------------------------------------------------------|

e|--9-------9-----9-7-------7--------------------------------------------|
B|------9-------9-------9-------9----------------------------------------|
G|----9---9---9-------9---9---9---9----------8-----8-----------9-11b12---|
D|-------------------------------------8---8---8-------9----11-----------|
A|-----------------------------------6---6-------6---7---7---------------|
E|-----------------------------------------------------------------------|

This part is really hard to hear so this may be slightly inaccurate. if you want to 
improvise it use the C# minor pentatonic.

e|--9-------9-----9-7-------7---------------------------------------------------|
B|------9-------9-------9-------9------------------12/14-12---------------------|
G|----9---9---9-------9---9---9---9---------------------------------------------|
D|------------------------------------------9h11-9--9/11-9----------------------|
A|----------------------------------------------------------11------------------|
E|-----------------------------------9-12-9--------------------12/14-12-9-7h9---|

e|--------------------------------------------------------------------------|
B|------------------------------------------------12/14-12------------------|
G|---------8-----8---------9-----9------------------------------------------|
D|---8---8---8-------9---9---9-------------9h11-9--9/11-9-------------------|
A|-6---6-------6---7---7-------7--------------------------11----------------|
E|----------------------------------9-12-9-------------------12/14-12-9-7h9-|

e|----------------------------------|
B|-----------------12-12-10-9-------|
G|---------8-----8------------------|
D|---8---8---8-----9--9--7--6-------|
A|-6---6-------6--------------------|
E|----------------------------------|


[Bridge and Chorus] again.


[Solo/Outro]
for this it sounds like Josh uses an octave pedal. But since I don't have one I just 
play this:

e|-/17--/19-/16--/14-14b16--16b17b16-14----------/17--/19-/16--/14-14b16--16b1716-14---21--19-|
B|-------------------------------------14--12-14----------------------------------------------|
G|--------------------------------------------------------------------------------------------|
D|--------------------------------------------------------------------------------------------|
A|--------------------------------------------------------------------------------------------|
E|--------------------------------------------------------------------------------------------|

e|-/17------/17------/16------/21---/19--------------------------|
B|---------------------------------------------------------------|
G|---------------------------------------------------------------|
D|---------------------------------------------------------------|
A|---------------------------------------------------------------|
E|---------------------------------------------------------------|

e|-----------------------------------------------21--19----------|
B|---------------------------------------------------------------|
G|-(14)--/18---(11)--/18-19-18---(9)--/18-19-18------------------|
D|---------------------------------------------------------------|
A|---------------------------------------------------------------|
E|---------------------------------------------------------------|

This bit is played a further octave up this is the only playable way to play
it. This is my best guess as to how it's played.

e||--17p12----17p12-19~--17p12----17p12-17~--16p12----16p12-16~--|
B||*-------14------------------14------------------14------------|
G||--------------------------------------------------------------|
D||--------------------------------------------------------------|
A||*-------------------------------------------------------------|
E||--------------------------------------------------------------|

e|-16p12----16p12----16p12----16p12----12p9---12p9---12p9---12p9------||
B|-------14-------14-------14-------14------9------9------9------9---*||
G|--------------------------------------------------------------------||
D|--------------------------------------------------------------------||
A|-------------------------------------------------------------------*||
E|--------------------------------------------------------------------||
Repeat 4x


e|-17p12----17p12----17p12----17p12----17p12----17p12----17p12----17p12----|
B|-------14-------14-------14-------14-------14-------14-------14-------14-|
G|-------------------------------------------------------------------------|
D|-------------------------------------------------------------------------|
A|-------------------------------------------------------------------------|
E|-------------------------------------------------------------------------|

e||--16p12----16p12----16p12----16p12----12p9---12p9---12p9---12p9-----||
B||*-------14-------14-------14-------14------9------9------9------9--*||
G||--------------------------------------------------------------------||
D||--------------------------------------------------------------------||
A||*------------------------------------------------------------------*||
E||--------------------------------------------------------------------||

Repeat and fade.

Well that's it, the full song. Hope you enjoyed it.

**************************************************

| /  slide up
| \  slide down
| h  hammer-on
| p  pull-off
| ~  vibrato
| +  harmonic
| x  Mute note

**************************************************
Suggest correction
comments
print report bad tab
10 comments total. Showing first comments.
+7 reply
vppark2 1,600 May 17, 2013 02:57 PM

this is awesome. the intro is really fun and simple to play. I also love the bridge. I will have to take time playing the outro tho.

+1 reply
damenossi15 10 May 20, 2013 08:56 PM

awesome tab

0 reply
zeddy07 10 May 27, 2013 02:06 PM

where is tha solo part, maaan???

guest
You may want to rate the tab now too:
select rating
Wanna post a correction for this tab? Suggest correction