Oops, an error
Loading. Please wait.

I Appear Missing Tab

version 4
version 4

Whole song

Interactive

40 views 6 this week
no commentswrite comment
1 2 3 4 5
2 more votes to show rating
add to favorites
launch autoscroll
font size
0
reset
how to read this tab
guitar tuner
Autoscroll
slow
fast
+/-
esc
set tempo
stop
Help us to improve Ultimate-Guitar.com Take our survey!
×
About this tab version
Hi everyone. This version is as close to the album version as possible, and it mainly focuses on Josh Homme's lead guitar part. Was this info helpful? Yes No
Hi everyone, the song structure changes quite a lot throughout, so I have labelled all the part the best I can
and this is the order start to finish: 
Main Riff/Verse 
Chorus A
Main Riff/Verse
Chorus B
"It's only falling in love"
"Dancing on wire, both ends are on fire"
Chorus B
Guitar Solo

[Main Riff/Verse] [x2]
e|--9-------9-----9-7-------7---------11------11---11-12------12----12-9--|
B|------9-----9---------9-----9---9-------8-----8---------9------9--------|
G|----9---9-----9-----9---9-----9-------8---8----8------9---9------9------|
D|------------------------------------------------------------------------|
A|------------------------------------------------------------------------|
E|------------------------------------------------------------------------|

e|--9-------9-----9-7-------7---------11------11----11------9-------------|
B|------9-----9---------9-----9---9-------8-----8-------9-9---12-9h10-----|
G|----9---9-----9-----9---9-----9-------8---8----8------------------------|
D|------------------------------------------------------------------------|
A|------------------------------------------------------------------------|
E|------------------------------------------------------------------------|

[Chorus A]:
e|--------------------------------------------|
B|--------------------------------------------|
G|--------------------------------------------|
D|------11--------11---------11---------11----|
A|-0-12---12-0-12----12-0-12----12-0-12----12-|
E|--------------------------------------------|

[played twice]:
e||------------------------------------------------------------------------------------------------|
B||------------------------------------------------------------------------------------------------|
G||-----------13------13-11-11--11-11-11-9--11/13--------------------------------------------------|
D||---11---11----11------------------------------------------11------------------13-13/14/13-11----|
A||-0----0---------0---------------------------------11---11----11---11----13----------------------|
E||----------------------9----9--------------------9----9----------9----11----11-------------------|

[Repeat Main Riff for Verse 2]

[Chorus B]:
e|--------------------------------------------|
B|--------------------------------------------|
G|--------------------------------------------|
D|------11--------11---------11---------11----|
A|-0-12---12-0-12----12-0-12----12-0-12----12-|
E|--------------------------------------------|

E|--------------------------------------------|
B|--------------------------------------------|
G|---6----6----6-7-6--6-6-x-6-6-6-4-----------|
D|-7-–-—4----2--------6-6-x-6-6-6-4-----------|
A|--------------------4-4-x-4-4-4-2-----------|
E|--------------------------------------------|

[played twice]:
e||------------------------------------------------------------------------------------------------|
B||------------------------------------------------------------------------------------------------|
G||-----------13------13-11-11--11-11-11-9--11/13--------------------------------------------------|
D||---11---11----11------------------------------------------11------------------13-13/14/13-11----|
A||-0----0---------0---------------------------------11---11----11---11----13----------------------|
E||----------------------9----9--------------------9----9----------9----11----11-------------------|

[“It’s only falling in love because you hit the ground”]
E|---------11---------------11-12--------------------------------------------------|
B|---8---8----8---8---9---9--------------------------------------------------------|
G|-8---8--------8---9---9----------------------------------------------------------|
D|--–-—--------------------------------11----------11----------11----------11---------|
A|--------------------------------0-12----12--0-12----12--0-12----12--0-12----12---|
E|---------------------------------------------------------------------------------|


[“Dancing on wire, both ends are on fire”]
E|---------9---9-7-----7-------------11-------------------------|
B|-----------9-----9-----9-----8---8----8---8----9--------------|
G|----9--------------9-----9p8---8--------8----9---9------9-11b-|
D|-11---11--------------------------------------------11--------|
A|--------------------------------------------------------------|
E|--------------------------------------------------------------|

[Repeat Chorus B]

[Guitar Solo] [I believe Josh has either pitch shifted or octaved this part. Repeat about 8 times until the 
end]
E|-17-19/16-14-14b16-14b16-14p12--------------17-19/16-14-14b16-14b16-14p12--|
B|--------------------------------14--12--14---------------------------------|
G|---------------------------------------------------------------------------|
D|---------------------------------------------------------------------------|
A|---------------------------------------------------------------------------|
E|---------------------------------------------------------------------------|

E|-17-19/16-14p12--21--19--5/17--5/17--4/16-21--19--0-9-0-9b10-0-9-4~~~~-----|
B|---------------------------------------------------------------------------|
G|---------------------------------------------------------------------------|
D|---------------------------------------------------------------------------|
A|---------------------------------------------------------------------------|
E|---------------------------------------------------------------------------|

e|-17p12----17p12----17p12----17p12----17p12----17p12----17p12----17p12------|
B|-------14-------14-------14-------14-------14-------14-------14-------14---|
G|---------------------------------------------------------------------------|
D|---------------------------------------------------------------------------|
A|---------------------------------------------------------------------------|
E|---------------------------------------------------------------------------|

e||--16p12----16p12----16p12----16p12----12p9---12p9---12p9---12p9-----------|
B||--------14-------14-------14-------14------9------9------9------9---------|
G||--------------------------------------------------------------------------|
D||--------------------------------------------------------------------------|
A||--------------------------------------------------------------------------|
E||--------------------------------------------------------------------------|

************************************

| x   Dead note
| g   Grace note
| (n) Ghost note
| h   Hammer-on
| p   Pull-off
| r   Release
| >   Accented note
| t   Tapping
| b   Bend
| br  Bend release
| pb  Pre-bend
| pbr Pre-bend release
| /   Slide up
| \   Slide down
| ~   Vibrato
| s   Slap
| P   Pop
| PM  Palm mute
| TR  Trill
| N   Tremolo

************************************
Suggest correction
Give kudos to tab author, rate the tab!
1 2 3 4 5
comments
print report bad tab
guest
You may want to rate the tab now too:
select rating
Wanna post a correction for this tab? Suggest correction