Oops, an error
Loading. Please wait.

I Never Came tab

version 1
version 1

Interactive

48,111 views 45 this week
9 commentsread comments
1 2 3 4 5
x 16
add to favorites
×
Save as Personal and add changes to this tab that will be seen only by you. Learn more ›
×
You can save this tab as Personal to edit and correct it or add notes. All changes will be seen only by you. Learn more »
launch autoscroll
font size
0
reset
how to read this tab
guitar tuner
backing track
0:00
0:00
edit
Autoscroll
slow
fast
+/-
esc
set tempo
stop
Author
Tabbers playing skills
intermediate ++
I NEVER CAME
                             Queens of the Stone Age
                             LULLABIES TO PARALYZE

I Like this song , so i've tabbed it out for you guys , i've been working on it for
about a week, Its set up differently to all my other tabs, probably cause there so
much detail in it so i had to. enjoy

Gtr I (E A D G B E) - 'Clean'
Gtr II (E A D G B E) - 'dist'
Gtr III (E A D G B E) - 'dist'
Gtr IV (E A D G B E) - 'clean'
Gtr V (E A D G B E) - 'piano'
Gtr VI (E A D G B E) - 'dist'

[Intro]
  Q=110
  N.C.           Em
 4/4
  Gtr I
  Wx4            S S S S S S S S S S S S S S S S
e|------------||----------------------------------|
B|------------||o---------------------------------|
G|------------||--9-9-9-9-9-9-9-9-9-9-9-9-9-9-9-9-|
D|------------||--9-9-9-9-9-9-9-9-9-9-9-9-9-9-9-9-|
A|------------||o---------------------------------|
E|------------||----------------------------------|


   A/C#
   S S S S S S S S S S S S S S S S
e|---------------------------------|
B|---------------------------------|
G|-6-6-6-6-6-6-6-6-6-6-6-6-6-6-6-6-|
D|-7-7-7-7-7-7-7-7-7-7-7-7-7-7-7-7-|
A|---------------------------------|
E|---------------------------------|


   A                                 G
   S S S S S S S S S S S S S S S S   S S S S S S S S S S S S S S S S
e|---------------------------------|----------------------------------||
B|---------------------------------|---------------------------------o||
G|-7-7-7-7-7-7-7-7-7-7-7-7-7-7-7-7-|-0-0-0-0-0-0-0-0-0-0-0-0-0-0-0-0--||
D|-7-7-7-7-7-7-7-7-7-7-7-7-7-7-7-7-|-0-0-0-0-0-0-0-0-0-0-0-0-0-0-0-0--||
A|---------------------------------|---------------------------------o||
E|---------------------------------|----------------------------------||


 [Verse]
     Em                                A/C#
     S S S S S S S S S S S S S S S S   S S S S S S S S S S S S S S S S
e||----------------------------------|---------------------------------|
B||o---------------------------------|---------------------------------|
G||--9-9-9-9-9-9-9-9-9-9-9-9-9-9-9-9-|-6-6-6-6-6-6-6-6-6-6-6-6-6-6-6-6-|
D||--9-9-9-9-9-9-9-9-9-9-9-9-9-9-9-9-|-7-7-7-7-7-7-7-7-7-7-7-7-7-7-7-7-|
A||o---------------------------------|---------------------------------|
E||----------------------------------|---------------------------------|


   A                                 G
   S S S S S S S S S S S S S S S S   S S S S S S S S S S S S S S S S  8x
e|---------------------------------|----------------------------------||
B|---------------------------------|---------------------------------o||
G|-7-7-7-7-7-7-7-7-7-7-7-7-7-7-7-7-|-0-0-0-0-0-0-0-0-0-0-0-0-0-0-0-0--||
D|-7-7-7-7-7-7-7-7-7-7-7-7-7-7-7-7-|-0-0-0-0-0-0-0-0-0-0-0-0-0-0-0-0--||
A|---------------------------------|---------------------------------o||
E|---------------------------------|----------------------------------||


 [Chorus]
   Em
   Gtr II
   E E E E E E E E   E E E E E E E E
e|-----------------|-----------------|
B|-----8---8---8---|-8---8---8---8---|
G|-9-9-9-9-9-9-9-9-|-9-9-9-9-9-9-9---|
D|-9-9-9-9-9-9-9-9-|-9-9-9-9-9-9-9---|
A|-7-7-7-7-7-7-7-7-|-7-7-7-7-7-7-7-0-|
E|-0-0-0-0-0-0-0-0-|-0-0-0-0-0-0-0-0-|
 |
 | Gtr III
 | E E Q   E E Q     E E E E E E Q
e|-----------------|-----------------|
B|-----8-------8---|-----8-------8---|
G|-----9-------9---|-----9-9-----9---|
D|---9-9-----9-----|---9-9-----9-----|
A|-7-------7-------|-7-------7-------|
E|---------0-------|---------0-------|


   C
    E  E  E  E  E  E  E  E    E  E  E  E  E  E  E  E
e|-------------------------|--------------------------|
B|--8-----8-----8--------8-|--8-----8-----8-----8-----|
G|--9-----9-----9--------9-|--9-----9-----9-----9-----|
D|-10-10-10-10-10-10-10-10-|-10-10-10-10-10-10-10--0--|
A|-10-10-10-10-10-10-10-10-|-10-10-10-10-10-10-10--0--|
E|--8--8--8--8--8--8--8--8-|--8--8--8--8--8--8--8--0--|
 |
 |  E  E  E  E  E  E  E  E    E  E  E  E  E  E  E  E
e|-------------------------|--------------------------|
B|-------------------------|--------------------------|
G|--------9-----------9--9-|--------9-----------9-----|
D|-10-10-10-------------10-|----------10-10-10-10-----|
A|-10-10----10----10-------|----10-------10-10----10--|
E|--8--8--------8----------|--8-----------8--8--------|


   A                                   Esus2             Em
   E E E E E E E E   E E E E E E E E   E E E E E E E E   E E E E E E E E
e|-----------------|-----------------|-----------------|------------------|
B|-5-----5-----5---|-5---5---5---5---|-7-7-7-7-7-7-7-7-|-8-8-8-8-8-8-8-8--|
G|-6-6-6-6-6-6-6-6-|-6-6-6-6-6-6-6-6-|-9-9-9-9-9-9-9-9-|-9-9-9-9-9-9-9-9--|
D|-7-7-7-7-7-7-7-7-|-7-7-7-7-7-7-7-7-|-9-9-9-9-9-9-9-9-|-9-9-9-9-9-9-9-9--|
A|-7-7-7-7-7-7-7-7-|-7-7-7-7-7-7-7-7-|-7-7-7-7-7-7-7-7-|-7-7-7-7-7-7-7-7--|
E|-5-5-5-5-5-5-5-5-|-5-5-5-5-5-5-5-5-|-0-0-0-0-0-0-0-0-|-0-0-0-0-0-0-0-0--|
 |
 | E E E E E E E E   E E E E E E E E   E E Q   E E Q     E E E E E E Q
e|-----------------|-----------------|-----------------|-----7------------|
B|-----5-------5-5-|-----5-5-----5---|-----7-------7---|-----8-------8----|
G|-----6-6-----6-6-|-----6-6-----6-6-|-----9-------9---|-----9-9-----9----|
D|---7-----7-7-----|-7-7-------7-----|---9-9-----9-----|---9-9-----9------|
A|-7-------7-------|-7-------7-------|-7-------7-------|-7-------7--------|
E|-5-------5-------|-5-------5-------|---------0-------|---------0--------|


   Esus2   Em        Esus2   Em        C
   E E E E E E E E   E E E E E E E E    E  E  E  E  E  E  E  E
e|-----------------|-7-7-7-7---------|--8-----8-----8--------8-|
B|-7-7-7-7-8-8-8-8-|-7-7-7-7-8-8-8---|--8-----8-----8--------8-|
G|-9-9-9-9-9-9-9-9-|-9-9-9-9-9-9-9---|--9-----9-----9--------9-|
D|-9-9-9-9-9-9-9-9-|-9-9-9-9-9-9-9-0-|-10-10-10-10-10-10-10-10-|
A|-7-7-7-7-7-7-7-7-|-7-7-7-7-7-7-7-0-|-10-10-10-10-10-10-10-10-|
E|-0-0-0-0-0-0-0-0-|-0-0-0-0-0-0-0-0-|--8--8--8--8--8--8--8--8-|
 |
 | E E Q   E E Q     E E E E E E Q      E  E  E  E  E  E  E  E
e|-----------------|-----------------|-------------------------|
B|-----7-------8---|-----7-------8---|-------------------------|
G|-----9-------9---|-----9-9-----9---|--------9-----------9--9-|
D|---9-9-----9-----|---9-9-----9-----|-10-10-10-------------10-|
A|-7-------7-------|-7-------7-------|-10-10----10----10-------|
E|---------0-------|---------0-------|--8--8--------8----------|


   C                         A
    E  E  E  E  E  E  E  E   E E E E E E E E   E E E E E E E E
e|--8-----8-----8-----8----|-----------------|-----------------|
B|--8-----8-----8-----8----|-5-----5-----5---|-5---5---5---5---|
G|--9-----9-----9-----9----|-6-6-6-6-6-6-6-6-|-6-6-6-6-6-6-6-6-|
D|-10-10-10-10-10-10-10--0-|-7-7-7-7-7-7-7-7-|-7-7-7-7-7-7-7-7-|
A|-10-10-10-10-10-10-10--0-|-7-7-7-7-7-7-7-7-|-7-7-7-7-7-7-7-7-|
E|--8--8--8--8--8--8--8--0-|-5-5-5-5-5-5-5-5-|-5-5-5-5-5-5-5-5-|
 |
 |  E  E  E  E  E  E  E  E   E E E E E E E E   E E E E E E E E
e|-------------------------|-----------------|-----------------|
B|-------------------------|-----5-------5-5-|-----5-5-----5---|
G|--------9-----------9----|-----6-6-----6-6-|-----6-6-----6-6-|
D|----------10-10-10-10----|---7-----7-7-----|-7-7-------7-----|
A|----10-------10-10----10-|-7-------7-------|-7-------7-------|
E|--8-----------8--8-------|-5-------5-------|-5-------5-------|


[Pre-Verse]

   Em                                 A/C#
   E   E    E   E   E   E   E   E     E   E   E   E    E   E   E   E
e|----------------------------------|----------------------------------|
B|----------------------------------|----------------------------------|
G|-9---9----9---9---9---9---9---9---|-6---6---6---6----6---6---6---6---|
D|-9---9----9---9---9---9---9---9---|-7---7---7---7----7---7---7---7---|
A|-7---7----7---7---7---7---7---7---|-4---4---4---4----4---4---4---4---|
E|-0---0----0---0---0---0---0---0---|----------------------------------|
 |
 | E   E    E   E   E   E   E   E     E   E   E   E    E   E   E   E
e|----------------------------------|----------------------------------|
B|----------------------------------|----------------------------------|
G|------------------------------7---|-6--------------------------------|
D|--------------7---9---7---9-------|-----9---7---9--------9-------9---|
A|-7---9---10-----------------------|-----------------10-------9-------|
E|----------------------------------|----------------------------------|
 |
 | Gtr I
 | S S S S  S S S S S S S S S S S S   S S S S S S S S  S S S S S S S S
e|----------------------------------|----------------------------------|
B|----------------------------------|----------------------------------|
G|-9-9-9-9--9-9-9-9-9-9-9-9-9-9-9-9-|-6-6-6-6-6-6-6-6--6-6-6-6-6-6-6-6-|
D|-9-9-9-9--9-9-9-9-9-9-9-9-9-9-9-9-|-7-7-7-7-7-7-7-7--7-7-7-7-7-7-7-7-|
A|----------------------------------|----------------------------------|
E|----------------------------------|----------------------------------|


   D                                  G
   E   E    E   E   E   E   E   E     E   E   E   E    E   E   E   E
e|----------------------------------|-------------------------------------|
B|----------------------------------|-------------------------------------|
G|-7---7----7---7---7---7---7---7---|-------------------------------------|
D|-7---7----7---7---7---7---7---7---|-5---5---5---5----5---5---5---5------|
A|-5---5----5---5---5---5---5---5---|-5---5---5---5----5---5---5---5------|
E|----------------------------------|-3---3---3---3----3---3---3---3------|
 |
 | E   E    E   E   E   E   E   E     E   E   E   E    E   E   E   E
e|----------------------------------|-------------------------------------|
B|----------------------------------|-------------------------------------|
G|------------------------------7---|-6-----------------------------------|
D|--------------7---9---7---9-------|-----9---7---9--------9-------9------|
A|-7---9---10-----------------------|-----------------10-------9----------|
E|----------------------------------|-------------------------------------|
 |
 | S S S S  S S S S S S S S S S S S   S S S S S S S S  S S S S S S S S
e|----------------------------------|-------------------------------------|
B|----------------------------------|-------------------------------------|
G|-7-7-7-7--7-7-7-7-7-7-7-7-7-7-7-7-|-0-0-0-0-0-0-0-0--0-0-0-0-0-0-0-0----|
D|-7-7-7-7--7-7-7-7-7-7-7-7-7-7-7-7-|-0-0-0-0-0-0-0-0--0-0-0-0-0-0-0-0----|
A|----------------------------------|-------------------------------------|
E|----------------------------------|-------------------------------------|


   Em                                 A/C#
   E   E    E   E   E   E   E   E     E   E   E   E    E   E   E   E
e|----------------------------------|----------------------------------|
B|----------------------------------|----------------------------------|
G|-9---9----9---9---9---9---9---9---|-6---6---6---6----6---6---6---6---|
D|-9---9----9---9---9---9---9---9---|-7---7---7---7----7---7---7---7---|
A|-7---7----7---7---7---7---7---7---|-4---4---4---4----4---4---4---4---|
E|-0---0----0---0---0---0---0---0---|----------------------------------|
 |
 | E   E    E   E   E   E   E   E     E   E   E   E    E   E   E   E
e|----------------------------------|----------------------------------|
B|----------------------------------|----------------------------------|
G|------------------------------7---|-6--------------------------------|
D|--------------7---9---7---9-------|-----9---7---9--------9-------9---|
A|-7---9---10-----------------------|-----------------10-------9-------|
E|----------------------------------|----------------------------------|
 |
 | S S S S  S S S S S S S S S S S S   S S S S S S S S  S S S S S S S S
e|----------------------------------|----------------------------------|
B|----------------------------------|----------------------------------|
G|-9-9-9-9--9-9-9-9-9-9-9-9-9-9-9-9-|-6-6-6-6-6-6-6-6--6-6-6-6-6-6-6-6-|
D|-9-9-9-9--9-9-9-9-9-9-9-9-9-9-9-9-|-7-7-7-7-7-7-7-7--7-7-7-7-7-7-7-7-|
A|----------------------------------|----------------------------------|
E|----------------------------------|----------------------------------|


   D                                  G
   E   E    E   E   E   E   E   E     E   E   E   E   E   E   E   E
e|----------------------------------|------------------------------------|
B|----------------------------------|------------------------------------|
G|-7---7----7---7---7---7---7---7---|------------------------------------|
D|-7---7----7---7---7---7---7---7---|-5---5---5---5---5---5---5---5------|
A|-5---5----5---5---5---5---5---5---|-5---5---5---5---5---5---5---5------|
E|----------------------------------|-3---3---3---3---3---3---3---3------|
 |
 | E   E    E   E   E   E   E   E     E   E   E   E   E   E   E   E
e|----------------------------------|------------------------------------|
B|------------------------------8---|-7---5-------5----------------------|
G|----------------------------------|---------7-------4---7-------4------|
D|--------------7---9---7---9-------|-------------------------5----------|
A|-7---9---10-----------------------|------------------------------------|
E|----------------------------------|------------------------------------|
 |
 | S S S S  S S S S S S S S S S S S   S S S S S S S S S S S S S S S S
e|----------------------------------|------------------------------------|
B|----------------------------------|------------------------------------|
G|-7-7-7-7--7-7-7-7-7-7-7-7-7-7-7-7-|-0-0-0-0-0-0-0-0-0-0-0-0-0-0-0-0----|
D|-7-7-7-7--7-7-7-7-7-7-7-7-7-7-7-7-|-0-0-0-0-0-0-0-0-0-0-0-0-0-0-0-0----|
A|----------------------------------|------------------------------------|
E|----------------------------------|------------------------------------|


 [Verse]
   Em                                 A/C#
   Gtr I
   S  S S S S S S S S S S S S S S S   S S S S S S S S S S S S S S S S
e|----------------------------------|---------------------------------|
B|----------------------------------|---------------------------------|
G|-9--9-9-9-9-9-9-9-9-9-9-9-9-9-9-9-|-6-6-6-6-6-6-6-6-6-6-6-6-6-6-6-6-|
D|-9--9-9-9-9-9-9-9-9-9-9-9-9-9-9-9-|-7-7-7-7-7-7-7-7-7-7-7-7-7-7-7-7-|
A|----------------------------------|---------------------------------|
E|----------------------------------|---------------------------------|
 |
 | Gtr III
 | W                                  W
e|----------------------------------|---------------------------------|
B|----------------------------------|---------------------------------|
G|----------------------------------|---------------------------------|
D|----------------------------------|---------------------------------|
A|-7\-------------------------------|---------------------------------|
E|----------------------------------|---------------------------------|


   A                                 D
   S S S S S S S S S S S S S S S S   S S S S S S S S S S S S S S S S
e|---------------------------------|---------------------------------|
B|---------------------------------|---------------------------------|
G|-7-7-7-7-7-7-7-7-7-7-7-7-7-7-7-7-|-0-0-0-0-0-0-0-0-0-0-0-0-0-0-0-0-|
D|-7-7-7-7-7-7-7-7-7-7-7-7-7-7-7-7-|-0-0-0-0-0-0-0-0-0-0-0-0-0-0-0-0-|
A|---------------------------------|---------------------------------|
E|---------------------------------|---------------------------------|


   Em                                A/C#
   S S S S S S S S S S S S S S S S   S S S S S S S S S S S S S S S S
e|---------------------------------|---------------------------------|
B|---------------------------------|---------------------------------|
G|-9-9-9-9-9-9-9-9-9-9-9-9-9-9-9-9-|-6-6-6-6-6-6-6-6-6-6-6-6-6-6-6-6-|
D|-9-9-9-9-9-9-9-9-9-9-9-9-9-9-9-9-|-7-7-7-7-7-7-7-7-7-7-7-7-7-7-7-7-|
A|---------------------------------|---------------------------------|
E|---------------------------------|---------------------------------|


   A                                 G
   S S S S S S S S S S S S S S S S   S S S S S S S S S S S S S S S S
e|---------------------------------|---------------------------------|
B|---------------------------------|---------------------------------|
G|-7-7-7-7-7-7-7-7-7-7-7-7-7-7-7-7-|-0-0-0-0-0-0-0-0-0-0-0-0-0-0-0-0-|
D|-7-7-7-7-7-7-7-7-7-7-7-7-7-7-7-7-|-0-0-0-0-0-0-0-0-0-0-0-0-0-0-0-0-|
A|---------------------------------|---------------------------------|
E|---------------------------------|---------------------------------|


     Em                                   A/C#
     S S S S  S  S S S S S S S  S S S S    S S S S S S S S S S S S S S S S
e||-------------------------------------|----------------------------------|
B||o------------------------------------|----------------------------------|
G||--9-9-9-9--9--9-9-9-9-9-9-9--9-9-9-9-|--6-6-6-6-6-6-6-6-6-6-6-6-6-6-6-6-|
D||--9-9-9-9--9--9-9-9-9-9-9-9--9-9-9-9-|--7-7-7-7-7-7-7-7-7-7-7-7-7-7-7-7-|
A||o------------------------------------|----------------------------------|
E||-------------------------------------|----------------------------------|
 |
 |   Gtr IV
 |   E   E   +H                 Q          H               H
e||-------------------------------------|----------------------------------|
B||o------------------------------------|----------------------------------|
G||--7s==9---(9)---------------11-------|-12---------------6---------------|
D||-------------------------------------|----------------------------------|
A||o------------------------------------|----------------------------------|
E||-------------------------------------|----------------------------------|


   A
   S      S S S  S  S S S S S  S  S S S  S  S
e|--------------------------------------------|
B|--------------------------------------------|
G|-7------7-7-7--7--7-7-7-7-7--7--7-7-7--7--7-|
D|-7------7-7-7--7--7-7-7-7-7--7--7-7-7--7--7-|
A|--------------------------------------------|
E|--------------------------------------------|
 |
 | Q             E    Q        E    E   +E
e|---------------0-------------0--------------|
B|--------------------------------------------|
G|-7b7.5========(7)---7-------(7)---7r==(7)---|
D|--------------------------------------------|
A|--------------------------------------------|
E|--------------------------------------------|


   D
     S S  S S  S S  S S S S S S S S S S
e|--------------------------------------|
B|--------------------------------------|
G|---0-0--0-0--0-0--0-0-0-0-0-0-0-0-0-0-|
D|---0-0--0-0--0-0--0-0-0-0-0-0-0-0-0-0-|
A|--------------------------------------|
E|--------------------------------------|
 |
 |   E    E    E    E   E   E   E   E
e|--------------------------------------|
B|-/12---12---12---12---8---8---8---8---|
G|--------------------------------------|
D|--------------------------------------|
A|--------------------------------------|
E|--------------------------------------|


   Em                                   A/C#
   S S S S  S  S S S S S S S  S S S S    S S S S S S S S S S S S S S S S
e|------------------------------------|----------------------------------|
B|------------------------------------|----------------------------------|
G|-9-9-9-9--9--9-9-9-9-9-9-9--9-9-9-9-|--6-6-6-6-6-6-6-6-6-6-6-6-6-6-6-6-|
D|-9-9-9-9--9--9-9-9-9-9-9-9--9-9-9-9-|--7-7-7-7-7-7-7-7-7-7-7-7-7-7-7-7-|
A|------------------------------------|----------------------------------|
E|------------------------------------|----------------------------------|
 |
 | E   E   +H                 Q          H               H
e|------------------------------------|----------------------------------|
B|------------------------------------|----------------------------------|
G|-7s==9---(9)---------------11-------|-12---------------6---------------|
D|------------------------------------|----------------------------------|
A|------------------------------------|----------------------------------|
E|------------------------------------|----------------------------------|


   1.
   A
   S      S S S  S  S S S S S  S  S S S S S
e|------------------------------------------|
B|------------------------------------------|
G|-7------7-7-7--7--7-7-7-7-7--7--7-7-7-7-7-|
D|-7------7-7-7--7--7-7-7-7-7--7--7-7-7-7-7-|
A|------------------------------------------|
E|------------------------------------------|
 |
 | Q             E    Q        E    Q
e|---------------0-------------0------------|
B|------------------------------------------|
G|-7b7.5========(7)---7r======(7)---6-------|
D|------------------------------------------|
A|------------------------------------------|
E|------------------------------------------|


   G
    S S S S  S S S S  S  S S S S S  S S
e|---------------------------------------||
B|--------------------------------------o||
G|--0-0-0-0--0-0-0-0--0--0-0-0-0-0--0-0--||
D|--0-0-0-0--0-0-0-0--0--0-0-0-0-0--0-0--||
A|--------------------------------------o||
E|---------------------------------------||
 |
 |  Q        Q        Q.            E
e|---------------------------------------||
B|--------------------------------------o||
G|-12-------12-------11------------11----||
D|---------------------------------------||
A|--------------------------------------o||
E|---------------------------------------||


   2.
   A
   S      S S S  S  S S S S S  S  S S S S S
e|------------------------------------------|
B|------------------------------------------|
G|-7------7-7-7--7--7-7-7-7-7--7--7-7-7-7-7-|
D|-7------7-7-7--7--7-7-7-7-7--7--7-7-7-7-7-|
A|------------------------------------------|
E|------------------------------------------|
 |
 | Q             E    Q        E    Q
e|---------------0-------------0------------|
B|------------------------------------------|
G|-7b7.5========(7)---7r======(7)---6-------|
D|------------------------------------------|
A|------------------------------------------|
E|------------------------------------------|


   G
     S S  S S  S S  S S  S S  S S  S S  S S
e|------------------------------------------|
B|------------------------------------------|
G|---0-0--0-0--0-0--0-0--0-0--0-0--0-0--0-0-|
D|---0-0--0-0--0-0--0-0--0-0--0-0--0-0--0-0-|
A|------------------------------------------|
E|------------------------------------------|
 |
 |   E    E    E    E    E    E    E    E
e|------------------------------------------|
B|-/12---12---12---12---10---10---10---10---|
G|------------------------------------------|
D|------------------------------------------|
A|------------------------------------------|
E|------------------------------------------|


   Em         A/C#       A             G
   W          W          H..       E   H..       E
e|----------|----------|-------------|--------------|
B|----------|----------|-------------|--------------|
G|-9--------|-6--------|-7---------7-|-0---------0--|
D|-9--------|-7--------|-7---------7-|-0---------0--|
A|----------|----------|-------------|--------------|
E|----------|----------|-------------|--------------|
 |
 | W          W          W             W
e|----------|----------|-------------|--------------|
B|----------|----------|-------------|--------------|
G|-9--------|----------|-------------|--------------|
D|----------|----------|-------------|--------------|
A|----------|----------|-------------|--------------|
E|----------|----------|-------------|--------------|


   Em            A/C#          A            G
   H..       E   H..       E   H    Q  Q    E E E E E E E E
e|-------------|-------------|------------|------------------|
B|-------------|-------------|------------|------------------|
G|-9---------9-|-6---------6-|-7----7--7--|-0-0-0-0-0-0-0-0--|
D|-9---------9-|-7---------7-|-7----7--7--|-0-0-0-0-0-0-0-0--|
A|-------------|-------------|------------|------------------|
E|-------------|-------------|------------|------------------|
 |
 | Gtr II
 | W             W             W            H       E E E E
e|-------------|-------------|------------|------------------|
B|-------------|-------------|------------|------------------|
G|-------------|-------------|------------|------------------|
D|-------------|-------------|------------|---------------5--|
A|-------------|-------------|------------|-------------5-5--|
E|-------------|-------------|------------|---------3-3-3-3--|


 [Chorus]
   Em
   Gtr II
    E  E  E  E  E  E  E  E    E  E  E  E  E  E  E  E
e|-------------------------|-------------------------|
B|--------8-----8-----8----|--8-----8-----8-----8----|
G|--9--9--9--9--9--9--9--9-|--9--9--9--9--9--9--9----|
D|--9--9--9--9--9--9--9--9-|--9--9--9--9--9--9--9----|
A|--7--7--7--7--7--7--7--7-|--7--7--7--7--7--7--7--0-|
E|--0--0--0--0--0--0--0--0-|--0--0--0--0--0--0--0--0-|
 |
 | Gtr III
 |  E  E  Q     E  E  Q       E  E  E  E  E  E  Q
e|-------------------------|-------------------------|
B|--------8-----------8----|--------8-----------8----|
G|--------9-----------9----|--------9--9--------9----|
D|-----9--9--------9-------|-----9--9--------9-------|
A|--7-----------7----------|--7-----------7----------|
E|--------------0----------|--------------0----------|
 |
 | Gtr V
 |  E  E  E  E  E  E  E  E    E  E  E  E  E  E  E  E
e|-12-12-12-12-12-12-12-12-|-12-12-12-12-12-12-12-12-|
B|-------------------------|-------------------------|
G|--9--9--9--9--9--9--9--9-|--9--9--9--9--9--9--9--9-|
D|-------------------------|-------------------------|
A|-------------------------|-------------------------|
E|-------------------------|-------------------------|


   C
    E  E  E  E  E  E  E  E    E  E  E  E  E  E  E  E
e|-------------------------|--------------------------|
B|--8-----8-----8--------8-|--8-----8-----8-----8-----|
G|--9-----9-----9--------9-|--9-----9-----9-----9-----|
D|-10-10-10-10-10-10-10-10-|-10-10-10-10-10-10-10--0--|
A|-10-10-10-10-10-10-10-10-|-10-10-10-10-10-10-10--0--|
E|--8--8--8--8--8--8--8--8-|--8--8--8--8--8--8--8--0--|
 |
 |  E  E  E  E  E  E  E  E    E  E  E  E  E  E  E  E
e|-------------------------|--------------------------|
B|-------------------------|--------------------------|
G|--------9-----------9--9-|--------9-----------9-----|
D|-10-10-10-------------10-|----------10-10-10-10-----|
A|-10-10----10----10-------|----10-------10-10----10--|
E|--8--8--------8----------|--8-----------8--8--------|
 |
 |  E  E  E  E  E  E  E  E    E  E  E  E  E  E  E  E
e|-12-12-12-12-12-12-12-12-|-12-12-12-12-12-12-12-12--|
B|-------------------------|--------------------------|
G|--9--9--9--9--9--9--9--9-|--9--9--9--9--9--9--9--9--|
D|-------------------------|--------------------------|
A|-------------------------|--------------------------|
E|-------------------------|--------------------------|


   A
    E  E  E  E  E  E  E  E    E  E  E  E  E  E  E  E
e|-------------------------|-------------------------|
B|--5--------5--------5----|--5-----5-----5-----5----|
G|--6--6--6--6--6--6--6--6-|--6--6--6--6--6--6--6--6-|
D|--7--7--7--7--7--7--7--7-|--7--7--7--7--7--7--7--7-|
A|--7--7--7--7--7--7--7--7-|--7--7--7--7--7--7--7--7-|
E|--5--5--5--5--5--5--5--5-|--5--5--5--5--5--5--5--5-|
 |
 |  E  E  E  E  E  E  E  E    E  E  E  E  E  E  E  E
e|-------------------------|-------------------------|
B|--------5-----------5--5-|--------5--5--------5----|
G|--------6--6--------6--6-|--------6--6--------6--6-|
D|-----7--------7--7-------|--7--7-----------7-------|
A|--7-----------7----------|--7-----------7----------|
E|--5-----------5----------|--5-----------5----------|
 |
 |  E  E  E  E  E  E  E  E    E  E  E  E  E  E  E  E
e|-12-12-12-12-12-12-12-12-|-12-12-12-12-12-12-12-12-|
B|-------------------------|-------------------------|
G|--9--9--9--9--9--9--9--9-|--9--9--9--9--9--9--9--9-|
D|-------------------------|-------------------------|
A|-------------------------|-------------------------|
E|-------------------------|-------------------------|


   Esus2                     Em
    E  E  E  E  E  E  E  E    E  E  E  E  E  E  E  E
e|-------------------------|--------------------------|
B|--7--7--7--7--7--7--7--7-|--8--8--8--8--8--8--8--8--|
G|--9--9--9--9--9--9--9--9-|--9--9--9--9--9--9--9--9--|
D|--9--9--9--9--9--9--9--9-|--9--9--9--9--9--9--9--9--|
A|--7--7--7--7--7--7--7--7-|--7--7--7--7--7--7--7--7--|
E|--0--0--0--0--0--0--0--0-|--0--0--0--0--0--0--0--0--|
 |
 |  E  E  Q     E  E  Q       E  E  E  E  E  E  Q
e|-------------------------|--------7-----------------|
B|--------7-----------7----|--------8-----------8-----|
G|--------9-----------9----|--------9--9--------9-----|
D|-----9--9--------9-------|-----9--9--------9--------|
A|--7-----------7----------|--7-----------7-----------|
E|--------------0----------|--------------0-----------|
 |
 |  E  E  E  E  E  E  E  E    E  E  E  E  E  E  E  E
e|-12-12-12-12-12-12-12-12-|-12-12-12-12-12-12-12-12--|
B|-------------------------|--------------------------|
G|--9--9--9--9--9--9--9--9-|--9--9--9--9--9--9--9--9--|
D|-------------------------|--------------------------|
A|-------------------------|--------------------------|
E|-------------------------|--------------------------|


   Esus2       Em            Esus2       Em
    E  E  E  E  E  E  E  E    E  E  E  E  E  E  E  E
e|-------------------------|--7--7--7--7-------------|
B|--7--7--7--7--8--8--8--8-|--7--7--7--7--8--8--8----|
G|--9--9--9--9--9--9--9--9-|--9--9--9--9--9--9--9----|
D|--9--9--9--9--9--9--9--9-|--9--9--9--9--9--9--9--0-|
A|--7--7--7--7--7--7--7--7-|--7--7--7--7--7--7--7--0-|
E|--0--0--0--0--0--0--0--0-|--0--0--0--0--0--0--0--0-|
 |
 |  E  E  Q     E  E  Q       E  E  E  E  E  E  Q
e|-------------------------|-------------------------|
B|--------7-----------8----|--------7-----------8----|
G|--------9-----------9----|--------9--9--------9----|
D|-----9--9--------9-------|-----9--9--------9-------|
A|--7-----------7----------|--7-----------7----------|
E|--------------0----------|--------------0----------|
|
 |  E  E  E  E  E  E  E  E    E  E  E  E  E  E  E  E
e|-12-12-12-12-12-12-12-12-|-12-12-12-12-12-12-12-12-|
B|-------------------------|-------------------------|
G|--9--9--9--9--9--9--9--9-|--9--9--9--9--9--9--9--9-|
D|-------------------------|-------------------------|
A|-------------------------|-------------------------|
E|-------------------------|-------------------------|


   C
    E  E  E  E  E  E  E  E    E  E  E  E  E  E  E  E
e|-------------------------|--8-----8-----8-----8-----|
B|--8-----8-----8--------8-|--8-----8-----8-----8-----|
G|--9-----9-----9--------9-|--9-----9-----9-----9-----|
D|-10-10-10-10-10-10-10-10-|-10-10-10-10-10-10-10--0--|
A|-10-10-10-10-10-10-10-10-|-10-10-10-10-10-10-10--0--|
E|--8--8--8--8--8--8--8--8-|--8--8--8--8--8--8--8--0--|
 |
 |  E  E  E  E  E  E  E  E    E  E  E  E  E  E  E  E
e|-------------------------|--------------------------|
B|-------------------------|--------------------------|
G|--------9-----------9--9-|--------9-----------9--9--|
D|-10-10-10-------------10-|-10-10-10-------------10--|
A|-10-10----10----10-------|-10-10----10----10--------|
E|--8--8--------8----------|--8--8--------8-----------|
 |
 |  E  E  E  E  E  E  E  E    E  E  E  E  E  E  E  E
e|-12-12-12-12-12-12-12-12-|-12-12-12-12-12-12-12-12--|
B|-------------------------|--------------------------|
G|--9--9--9--9--9--9--9--9-|--9--9--9--9--9--9--9--9--|
D|-------------------------|--------------------------|
A|-------------------------|--------------------------|
E|-------------------------|--------------------------|


   A
    E  E  E  E  E  E  E  E    E  E  E  E  E  E  E  E
e|-------------------------|-------------------------|
B|--5--------5--------5----|--5-----5-----5-----5----|
G|--6--6--6--6--6--6--6--6-|--6--6--6--6--6--6--6--6-|
D|--7--7--7--7--7--7--7--7-|--7--7--7--7--7--7--7--7-|
A|--7--7--7--7--7--7--7--7-|--7--7--7--7--7--7--7--7-|
E|--5--5--5--5--5--5--5--5-|--5--5--5--5--5--5--5--5-|
 |
 |  E  E  E  E  E  E  E  E    E  E  E  E  E  E  E  E
e|-------------------------|-------------------------|
B|--------5-----------5--5-|--------5--5--------5----|
G|--------6--6--------6--6-|--------6--6--------6--6-|
D|-----7--------7--7-------|--7--7-----------7-------|
A|--7-----------7----------|--7-----------7----------|
E|--5-----------5----------|--5-----------5----------|
 |
 |  E  E  E  E  E  E  E  E    E  E  E  E  E  E  E  E
e|-12-12-12-12-12-12-12-12-|-12-12-12-12-12-12-12-12-|
B|-------------------------|-------------------------|
G|--9--9--9--9--9--9--9--9-|--9--9--9--9--9--9--9--9-|
D|-------------------------|-------------------------|
A|-------------------------|-------------------------|
E|-------------------------|-------------------------|


   C
    E  E  E  E  E  E  E  E    E  E  E  E  E  E  E  E
e|-------------------------|--8-----8-----8-----8-----|
B|--8-----8-----8--------8-|--8-----8-----8-----8-----|
G|--9-----9-----9--------9-|--9-----9-----9-----9-----|
D|-10-10-10-10-10-10-10-10-|-10-10-10-10-10-10-10--0--|
A|-10-10-10-10-10-10-10-10-|-10-10-10-10-10-10-10--0--|
E|--8--8--8--8--8--8--8--8-|--8--8--8--8--8--8--8--0--|
 |
 |  E  E  E  E  E  E  E  E    E  E  E  E  E  E  E  E
e|-------------------------|--------------------------|
B|-------------------------|--------------------------|
G|--------9-----------9--9-|--------9-----------9--9--|
D|-10-10-10-------------10-|-10-10-10-------------10--|
A|-10-10----10----10-------|-10-10----10----10--------|
E|--8--8--------8----------|--8--8--------8-----------|
 |
 |  E  E  E  E  E  E  E  E    E  E  E  E  E  E  E  E
e|-12-12-12-12-12-12-12-12-|-12-12-12-12-12-12-12-12--|
B|-------------------------|--------------------------|
G|--9--9--9--9--9--9--9--9-|--9--9--9--9--9--9--9--9--|
D|-------------------------|--------------------------|
A|-------------------------|--------------------------|
E|-------------------------|--------------------------|


   A                                                   C
    E  E  E  E  E  E  E  E    E  E  E  E  E  E  E  E    E  E  E  E  E  E  E  E
e|-------------------------|-------------------------|-------------------------|
B|--5--------5--------5----|--5-----5-----5-----5----|--8-----8-----8--------8-|
G|--6--6--6--6--6--6--6--6-|--6--6--6--6--6--6--6--6-|--9-----9-----9--------9-|
D|--7--7--7--7--7--7--7--7-|--7--7--7--7--7--7--7--7-|-10-10-10-10-10-10-10-10-|
A|--7--7--7--7--7--7--7--7-|--7--7--7--7--7--7--7--7-|-10-10-10-10-10-10-10-10-|
E|--5--5--5--5--5--5--5--5-|--5--5--5--5--5--5--5--5-|--8--8--8--8--8--8--8--8-|
 |
 |  E  E  E  E  E  E  E  E    E  E  E  E  E  E  E  E    E  E  E  E  E  E  E  E
e|-------------------------|-------------------------|-------------------------|
B|--------5-----------5--5-|--------5--5--------5----|-------------------------|
G|--------6--6--------6--6-|--------6--6--------6--6-|--------9-----------9--9-|
D|-----7--------7--7-------|--7--7-----------7-------|-10-10-10-------------10-|
A|--7-----------7----------|--7-----------7----------|-10-10----10----10-------|
E|--5-----------5----------|--5-----------5----------|--8--8--------8----------|
 |
 |  E  E  E  E  E  E  E  E    E  E  E  E  E  E  E  E    E  E  E  E  E  E  E  E
e|-12-12-12-12-12-12-12-12-|-12-12-12-12-12-12-12-12-|-12-12-12-12-12-12-12-12-|
B|-------------------------|-------------------------|-------------------------|
G|--9--9--9--9--9--9--9--9-|--9--9--9--9--9--9--9--9-|--9--9--9--9--9--9--9--9-|
D|-------------------------|-------------------------|-------------------------|
A|-------------------------|-------------------------|-------------------------|
E|-------------------------|-------------------------|-------------------------|


   C                         A
    E  E  E  E  E  E  E  E    E  E  E  E E E E E    E  E  E  E  E  E  E  E
e|--8-----8-----8-----8----|---------------------|-------------------------|
B|--8-----8-----8-----8----|--5--------5-----5---|--5-----5-----5-----5----|
G|--9-----9-----9-----9----|--6--6--6--6-6-6-6-6-|--6--6--6--6--6--6--6--6-|
D|-10-10-10-10-10-10-10--0-|--7--7--7--7-7-7-7-7-|--7--7--7--7--7--7--7--7-|
A|-10-10-10-10-10-10-10--0-|--7--7--7--7-7-7-7-7-|--7--7--7--7--7--7--7--7-|
E|--8--8--8--8--8--8--8--0-|--5--5--5--5-5-5-5-5-|--5--5--5--5--5--5--5--5-|
 |
 |  E  E  E  E  E  E  E  E    E  E  E  E E E E E    E  E  E  E  E  E  E  E
e|-------------------------|---------------------|-------------------------|
B|-------------------------|--------5--------5-5-|--------5--5--------5----|
G|--------9-----------9--9-|--------6--6-----6-6-|--------6--6--------6--6-|
D|-10-10-10-------------10-|-----7-------7-7-----|--7--7-----------7-------|
A|-10-10----10----10-------|--7----------7-------|--7-----------7----------|
E|--8--8--------8----------|--5----------5-------|--5-----------5----------|
 |
 | Gtr VI
 |  E  E  E  E  E  E  E  E    E  E  E  E E E E E    E  E  E  E  E  E  E  E
e|--5--5--5--5--7--7--7--7-|-10-10-10-10-7-7-7-7-|-12-12-12-12-10-10-10-10-|
B|-------------------------|---------------------|-------------------------|
G|-------------------------|---------------------|-------------------------|
D|-------------------------|---------------------|-------------------------|
A|-------------------------|---------------------|-------------------------|
E|-------------------------|---------------------|-------------------------|


 [Outro]
   Em                                 A/C#
   E   E    E   E   E   E   E   E     E   E   E   E    E   E   E   E
e|----------------------------------|----------------------------------|
B|----------------------------------|----------------------------------|
G|-9---9----9---9---9---9---9---9---|-6---6---6---6----6---6---6---6---|
D|-9---9----9---9---9---9---9---9---|-7---7---7---7----7---7---7---7---|
A|-7---7----7---7---7---7---7---7---|-4---4---4---4----4---4---4---4---|
E|-0---0----0---0---0---0---0---0---|----------------------------------|
 |
 | E   E    E   E   E   E   E   E     E   E   E   E    E   E   E   E
e|----------------------------------|----------------------------------|
B|----------------------------------|----------------------------------|
G|------------------------------7---|-6--------------------------------|
D|--------------7---9---7---9-------|-----9---7---9--------9-------9---|
A|-7---9---10-----------------------|-----------------10-------9-------|
E|----------------------------------|----------------------------------|
 |
 | Gtr I
 | S S S S  S S S S S S S S S S S S   S S S S S S S S  S S S S S S S S
e|----------------------------------|----------------------------------|
B|----------------------------------|----------------------------------|
G|-9-9-9-9--9-9-9-9-9-9-9-9-9-9-9-9-|-6-6-6-6-6-6-6-6--6-6-6-6-6-6-6-6-|
D|-9-9-9-9--9-9-9-9-9-9-9-9-9-9-9-9-|-7-7-7-7-7-7-7-7--7-7-7-7-7-7-7-7-|
A|----------------------------------|----------------------------------|
E|----------------------------------|----------------------------------|


   A                                  G
   E   E    E   E   E   E   E   E     E   E   E   E    E   E   E   E
e|----------------------------------|-------------------------------------|
B|----------------------------------|-------------------------------------|
G|-7---7----7---7---7---7---7---7---|-------------------------------------|
D|-7---7----7---7---7---7---7---7---|-5---5---5---5----5---5---5---5------|
A|-5---5----5---5---5---5---5---5---|-5---5---5---5----5---5---5---5------|
E|----------------------------------|-3---3---3---3----3---3---3---3------|
 |
 | E   E    E   E   E   E   E   E     E   E   E   E    E   E   E   E
e|----------------------------------|-------------------------------------|
B|----------------------------------|-------------------------------------|
G|------------------------------7---|-6-----------------------------------|
D|--------------7---9---7---9-------|-----9---7---9--------9-------9------|
A|-7---9---10-----------------------|-----------------10-------9----------|
E|----------------------------------|-------------------------------------|
 |
 | S S S S  S S S S S S S S S S S S   S S S S S S S S  S S S S S S S S
e|----------------------------------|-------------------------------------|
B|----------------------------------|-------------------------------------|
G|-7-7-7-7--7-7-7-7-7-7-7-7-7-7-7-7-|-0-0-0-0-0-0-0-0--0-0-0-0-0-0-0-0----|
D|-7-7-7-7--7-7-7-7-7-7-7-7-7-7-7-7-|-0-0-0-0-0-0-0-0--0-0-0-0-0-0-0-0----|
A|----------------------------------|-------------------------------------|
E|----------------------------------|-------------------------------------|


   Em                                 A/C#
   E   E    E   E   E   E   E   E     E   E   E   E   E   E   E   E
e|----------------------------------|---------------------------------|
B|----------------------------------|---------------------------------|
G|-9---9----9---9---9---9---9---9---|-6---6---6---6---6---6---6---6---|
D|-9---9----9---9---9---9---9---9---|-7---7---7---7---7---7---7---7---|
A|-7---7----7---7---7---7---7---7---|-4---4---4---4---4---4---4---4---|
E|-0---0----0---0---0---0---0---0---|---------------------------------|
 |
 | E   E    E   E   E   E   E   E     E   E   E   E   E   E   E   E
e|----------------------------------|---------------------------------|
B|------------------------------8---|-7---5-------5-------------------|
G|----------------------------------|---------7-------4---7-------4---|
D|--------------7---9---7---9-------|-------------------------5-------|
A|-7---9---10-----------------------|---------------------------------|
E|----------------------------------|---------------------------------|
 |
 | S S S S  S S S S S S S S S S S S   S S S S S S S S S S S S S S S S
e|----------------------------------|---------------------------------|
B|----------------------------------|---------------------------------|
G|-9-9-9-9--9-9-9-9-9-9-9-9-9-9-9-9-|-6-6-6-6-6-6-6-6-6-6-6-6-6-6-6-6-|
D|-9-9-9-9--9-9-9-9-9-9-9-9-9-9-9-9-|-7-7-7-7-7-7-7-7-7-7-7-7-7-7-7-7-|
A|----------------------------------|---------------------------------|
E|----------------------------------|---------------------------------|


   A                                  G
   E   E    E   E   E   E   E   E     E   E   E   E   E   E   E   E
e|----------------------------------|------------------------------------|
B|----------------------------------|------------------------------------|
G|-7---7----7---7---7---7---7---7---|------------------------------------|
D|-7---7----7---7---7---7---7---7---|-5---5---5---5---5---5---5---5------|
A|-5---5----5---5---5---5---5---5---|-5---5---5---5---5---5---5---5------|
E|----------------------------------|-3---3---3---3---3---3---3---3------|
 |
 | E   E    E   E   E   E   E   E     E   E   E   E   E   E   E   E
e|----------------------------------|------------------------------------|
B|------------------------------8---|-7---5-------5----------------------|
G|----------------------------------|---------7-------4---7-------4------|
D|--------------7---9---7---9-------|-------------------------5----------|
A|-7---9---10-----------------------|------------------------------------|
E|----------------------------------|------------------------------------|
 |
 | S S S S  S S S S S S S S S S S S   S S S S S S S S S S S S S S S S
e|----------------------------------|------------------------------------|
B|----------------------------------|------------------------------------|
G|-7-7-7-7--7-7-7-7-7-7-7-7-7-7-7-7-|-0-0-0-0-0-0-0-0-0-0-0-0-0-0-0-0----|
D|-7-7-7-7--7-7-7-7-7-7-7-7-7-7-7-7-|-0-0-0-0-0-0-0-0-0-0-0-0-0-0-0-0----|
A|----------------------------------|------------------------------------|
E|----------------------------------|------------------------------------|


     Em                                A/C#
     E   E   E   E   E   E   E   E     E   E   E   E   E   E   E   E
e||----------------------------------|---------------------------------|
B||o---------------------------------|---------------------------------|
G||--9---9---9---9---9---9---9---9---|-6---6---6---6---6---6---6---6---|
D||--9---9---9---9---9---9---9---9---|-7---7---7---7---7---7---7---7---|
A||o-7---7---7---7---7---7---7---7---|-4---4---4---4---4---4---4---4---|
E||--0---0---0---0---0---0---0---0---|---------------------------------|
 |
 |   E   E   E   E   E   E   E   E     E   E   E   E   E   E   E   E
e||----------------------------------|---------------------------------|
B||o---------------------------------|---------------------------------|
G||----------------------------------|---------------------------------|
D||--2---2---2---2---2---2---4---4---|-5---5---5---5---4---4---4---4---|
A||o---------------------------------|---------------------------------|
E||----------------------------------|---------------------------------|
 |
 |   S S S S S S S S S S S S S S S S   S S S S S S S S S S S S S S S S
e||----------------------------------|---------------------------------|
B||o---------------------------------|---------------------------------|
G||--9-9-9-9-9-9-9-9-9-9-9-9-9-9-9-9-|-6-6-6-6-6-6-6-6-6-6-6-6-6-6-6-6-|
D||--9-9-9-9-9-9-9-9-9-9-9-9-9-9-9-9-|-7-7-7-7-7-7-7-7-7-7-7-7-7-7-7-7-|
A||o---------------------------------|---------------------------------|
E||----------------------------------|---------------------------------|


   A                                 G
   E   E   E   E   E   E   E   E     E   E   E   E   E   E   E   E
e|---------------------------------|------------------------------------||
B|---------------------------------|-----------------------------------o||
G|-7---7---7---7---7---7---7---7---|------------------------------------||
D|-7---7---7---7---7---7---7---7---|-5---5---5---5---5---5---5---5------||
A|-5---5---5---5---5---5---5---5---|-5---5---5---5---5---5---5---5-----o||
E|---------------------------------|-3---3---3---3---3---3---3---3------||
 |
 | E   E   E   E   E   E   E   E     E   E   E   E   E   E   E   E
e|---------------------------------|------------------------------------||
B|---------------------------------|-----------------------------------o||
G|---------------------------------|------------------------------------||
D|-7---7---7---7---5---5---5---5---|-9---9---9---9---7---7---7---7------||
A|---------------------------------|-----------------------------------o||
E|---------------------------------|------------------------------------||
 |
 | S S S S S S S S S S S S S S S S   S S S S S S S S S S S S S S S S
e|---------------------------------|------------------------------------||
B|---------------------------------|-----------------------------------o||
G|-7-7-7-7-7-7-7-7-7-7-7-7-7-7-7-7-|-0-0-0-0-0-0-0-0-0-0-0-0-0-0-0-0----||
D|-7-7-7-7-7-7-7-7-7-7-7-7-7-7-7-7-|-0-0-0-0-0-0-0-0-0-0-0-0-0-0-0-0----||
A|---------------------------------|-----------------------------------o||
E|---------------------------------|------------------------------------||


   Em
   W          +W           +W           +W
e|----------|------------|------------|--------*|
B|----------|------------|------------|--------*|
G|-9--------|-(9)--------|-(9)--------|-(9)----*|
D|-9--------|-(9)--------|-(9)--------|-(9)----*|
A|-7--------|-(7)--------|-(7)--------|-(7)----*|
E|-0--------|-(0)--------|-(0)--------|-(0)----*|
 |
 | W          +W           +W           +W
e|----------|------------|------------|--------*|
B|----------|------------|------------|--------*|
G|----------|------------|------------|--------*|
D|-2--------|-(2)--------|-(2)--------|-(2)----*|
A|----------|------------|------------|--------*|
E|----------|------------|------------|--------*|
 |
 | W          +W           +W           +W
e|----------|------------|------------|--------*|
B|----------|------------|------------|--------*|
G|-9--------|-(9)--------|-(9)--------|-(9)----*|
D|-9--------|-(9)--------|-(9)--------|-(9)----*|
A|----------|------------|------------|--------*|
E|----------|------------|------------|--------*|



************************************

| \    Slide down
| (n)  Ghost note
| b    Bend
| /    Slide up
| *    reprise

************************************
Suggest correction
Creating personal tab
Creating personal tab
You can edit any tab online and save it as your Personal.

You can edit, replace or remove any tab part or add personal notes – all changes will be seen only by you.

Personal tabs can be accessed anytime from any device, even offline.
Learn more »
comments
print report bad tab
9 comments total. Showing first comments.
0 reply
tylersugarcarlo 591 Jun 05, 2005 08:00 PM

damn, this is good

0 reply
apple pie 61 Jun 18, 2005 08:00 PM

awesome tab man , 5 outta 5

0 reply
Calvin000 10 Jun 22, 2005 08:00 PM

Congrats man, this tab is perfect: 5 stars.

guest
You may want to rate the tab now too:
select rating
Wanna post a correction for this tab? Suggest correction