Oops, an error
Loading. Please wait.

I Sat By The Ocean Bass Tab

version 1
version 1

Whole song

Interactive

38,040 views 48 this week
3 commentsread comments
1 2 3 4 5
x 15
add to favorites
launch autoscroll
font size
0
reset
guitar tuner
Autoscroll
slow
fast
+/-
esc
set tempo
stop
Help us to improve Ultimate-Guitar.com Take our survey!
×
Author
Difficulty
intermediate
-----------------------------------------------------------------
SONG NAME – Queens Of The Stone Age 
Tabbed By : 
Aidan Hall of Abandoned Faith www.abandonedfaith.co.uk
e-mail:aidanhallbass@yahoo.co.uk 
Tuning:
Standard


[Intro]
G|---------------------------------------------------------------|
D|---------------------------------------------------------------|
A|11-11-9h11-11-9h11-11-9h11\------------------------------------|
E|---------------------------------------------------------------|

G|---------------------------------------------------------------|
D|-----------------------------8-8-9-9-11/13\11/13-11-9-9--------|
A|11-11-9h11-11-9h11-11-11-11----------------------------9-9-----|
E|---------------------------------------------------------------|

G|---------------------------------------------------------------|
D|----------------------------------------------------------9----|
A|11/13p11h13-11-9h11-11-9h11-11-9h11-11-11-9-9-7-7-7-7-9-11-----|
E|---------------------------------------------------------------|

G|---------------------------------------------------------------|
D|11-11-11h1211-9------------------------------------------------|
A|---------------11-11-9h11-11-9h11-11-9h11\---------------------|
E|---------------------------------------------------------------|
verse x2
G|---------------------------------------------------------------|
D|-----------------------------8-8-9-9-11/13\11/13-11-9-9--------|
A|11-11-9h11-11-9h11-11-11-11----------------------------9-9-----|
E|---------------------------------------------------------------|

G|---------------------------------------------------------------|
D|----------------------------------------------------------9----|
A|11/13p11h13-11-9h11-11-9h11-11-9h11-11-11-9-9-7-7-7-7-9-11-----|
E|---------------------------------------------------------------|

G|---------------------------------------------------------------|
D|11-11-11h1211-9------------------------------------------------|
A|---------------11-11-9h11-11-9h11-11-9h11\---------------------|
E|---------------------------------------------------------------|
 
 chorus - bass comes in halfway through with 

G|---------------------------------------------------------------|
D|---------------------------------------------------------------|
A|7-7-7-7-7-7-7-9-9-9-9-9-9-9-11-11-11-11-11-11-9h11-11-11-11-11-|
E|---------------------------------------------------------------|

G|--------------------------------------------13-11--------------|
D|---------------------------------------10-13-----13-10---------|
A|11-11-11-4-4-4-4-4-4-4-2-1-1-1-1-1-1-11------------------------|
E|-------------------------------------------------------12-12-12|



G|---------------------------------------------------------------|
D|---------------------------------------------------------------|
A|---------------------------------------------------------------|
E|12-12-12-12----------------------------------------------------|

intro again

G|---------------------------------------------------------------|
D|---------------------------------------------------------------|
A|11-11-11-11-11-9h11-11-9h11-11-9h11\---------------------------|
E|---------------------------------------------------------------|

G|---------------------------------------------------------------|
D|-----------------------------8-8-9-9-11/13\11/13-11-9-9--------|
A|11-11-9h11-11-9h11-11-11-11----------------------------9-9-----|
E|---------------------------------------------------------------|

G|---------------------------------------------------------------|
D|----------------------------------------------------------9----|
A|11/13p11h13-11-9h11-11-9h11-11-9h11-11-11-9-9-7-7-7-7-9-11-----|
E|---------------------------------------------------------------|

G|---------------------------------------------------------------|
D|11-11-11h1211-9------------------------------------------------|
A|---------------11-11-9h11-11-9h11-11-9h11\---------------------|
E|---------------------------------------------------------------|

Then repeat the verse and chorus.

Last fiddly bit..

G|---------------------------------------------------------------|
D|---------------------------------------------------------------|
A|7-7-7-7-7-7-7-9-9-9-9-9-9-9-11-11-11-11-11-11-9h11-11-11-11-11-|
E|---------------------------------------------------------------|

G|--------------------------------------------13-11--------------|
D|---------------------------------------10-13-----13-10---------|
A|11-11-11-4-4-4-4-4-4-4-2-1-1-1-1-1-1-11------------------------|
E|-------------------------------------------------------12-12-12|


G|---------------------------------------------------------------|
D|---------------------------------------------------------------|
A|---------------------------------------------------------------|
E|12-12-12-12-12-7-7-7-7-7-7-7-9-9-9-9-9-9-9-11-11-11-11-11-11-11|


G|--------------------------------------------------13-11--------|
D|----------------------------------------------10-13----13-10---|
A|----11-11-11-11-4-4-4-4-4-4-4-2-1-1-1-1-1-1-11-----------------|
E|9h11-----------------------------------------------------------|

G|------------------------13-11----------------------------------|
D|-------------------10-13----13-10------------------------------|
A|-----------------11--------------------------------------------|
E|12-12-12-12-12-12----------------12-12-12-12-12-12-12----------|

G|-------13-11---------------------------------------------------|
D|--10-13----13-10-----------------------------------------------|
A|11-------------------------------------------------------------|
E|----------------12-12-12-12-12-12-12---------------------------|

Last bit x 4

G|--------------5------------------------------------------------|
D|-----------4-6-6-4-6-------------------------------------------|
A|7-7-6-4-4-6----------------------------------------------------|
E|---------------------------------------------------------------|

[Outro]

G|----------------------------------13-11------------------------|
D|------------------------------10-13----13-10-------------------|
A|4-4-4-4-4-4-4-2-1-1-1-1-1-1-11---------------------------------|
E|---------------------------------------------12-12-12-12-12-12-|


G|---------------------------------------------------------------|
D|---------------------------------------------------------------|
A|---------------------------------------------------------------|
E|12-12-12-12-12-12-------The End--------------------------------|


*****************************************

| /  slide up
| \  slide down
| h  hammer-on
| p  pull-off
| ~  vibrato
| +  harmonic
| x  Mute note

*****************************************
Suggest correction
comments
print report bad tab
3 comments total.
0 reply
diestor 73 Aug 02, 2013 12:05 AM

Awesome Tab dude

0 reply
Rubber 219 Mar 24, 2014 02:09 PM

I think the Chorus is actually something more like:


G|--------------------------------------------------------------------------|
D|------------------------------------------------------13---10--13-10------|
A|7-7-7-7-7-7-7-9-9-9-9-9-9-9-11-11-11-11-11-11-9h11-11---11----------11----|
E|--------------------------------------------------------------------------|

G|-----------9---9-----9--9-----------13-11---------------|
D|-------------------------------10-13-----13-10----------|
A|---------------------------11---------------------------|
E|---------9---9---7-6--6------------------------12-12-12-|


Apart from that, spot on.

+1 reply
Avarice2873 10 Apr 17, 2014 07:39 AM

Hi, this is great thanks and i have been playing along to your YouTube vid too. I can't see that you do the 11/13/11 slide that is In your tab though. I was wondering if it was my mistake? Thanks again.

guest
You may want to rate the tab now too:
select rating
Wanna post a correction for this tab? Suggest correction