Oops, an error
Loading. Please wait.

I Think I Lost My Headache tab

version 3
version 3

Whole song

Interactive

37,193 views 27 this week
6 commentsread comments
1 2 3 4 5
x 15
add to favorites
×
Save as Personal and add changes to this tab that will be seen only by you. Learn more ›
×
You can save this tab as Personal to edit and correct it or add notes. All changes will be seen only by you. Learn more »
launch autoscroll
font size
0
reset
how to read this tab
guitar tuner
backing track
0:00
0:00
edit
Autoscroll
slow
fast
+/-
esc
set tempo
stop
Author
Tuning:
C,F,Bb,Eb,G,C 

[Main Riff]
(Guitar 1)
(Heavy Distortion w/Low Tone) 
e|--------------------------------|
B|--------------------------------|
G|-----8--6-------6---5-----------|
D|---7------7---5-------7-----7---|
A|--------------------------8-----|
E|-5------------------------------| 

e|-------------------------------|------------------------------|
B|-------------------------------|------------------------------|
G|----8--6-------6---5-----------|----8--6-------6---5----------|
D|--7------7---5-------7-----7---|--7------7---5-------7-----7--|
A|-------------------------8-----|-------------------------8----|
E|-------------------------------|------------------------------|

(Guitar 2)
e|--16------------------------------|
B|-----16~------------------15^-13--|
G|----------------------------------|
D|----------------------------------|
A|----------------------------------|
E|----------------------------------|
   
(Guitar 1)
e|-------------------------------|------------------------------|
B|-------------------------------|------------------------------|
G|----8--6-------6---5-----------|----8--6-------6---5----------|
D|--7------7---5-------7----8----|--7------7---5-------7-----7--|
A|------------------------8---8--|-------------------------8----|
E|-------------------------------|------------------------------|

[Slide] (follows each rhythm note)
e|---------------------------------|
B|-10/16--14\10--8/14-13\10--5/10--|
G|---------------------------------|
D|---------------------------------|
A|---------------------------------|
E|---------------------------------|

(Guitar 2)
e|---------------------------------------------16---------------|
B|-----------------------16^---------------------16~------------|
G|---------------------------14~--------------------------------|
D|--------------------------------------------------------------|
A|--------------------------------------------------------------|
E|--------------------------------------------------------------|

(Guitar 1) 
e|-------------------------------|------------------------------|
B|-------------------------------|------------------------------|
G|----8--6-------6---5-----------|----8--6-------6---5----------|
D|--7------7---5-------7-----7---|--7------7---5-------7-----7--|
A|-------------------------8-----|-------------------------8----|
E|-------------------------------|------------------------------|

[Slide]
e|---------------------------------|---------------------------------|
B|-10/16--14\10--8/14-13\10--5/10--|-10/16--14\10--8/14-13\10--5/10--|
G|---------------------------------|---------------------------------|
D|---------------------------------|---------------------------------|
A|---------------------------------|---------------------------------|
E|---------------------------------|---------------------------------|

(Guitar 2)
e|-------------------------------------------------16-----------|
B|--------------------15-13--------------------------16--16~----|
G|--------------------------14p12h14~-----------------------14--|
D|--------------------------------------------------------------|
A|--------------------------------------------------------------|
E|--------------------------------------------------------------|

(Guitar 1)
e|------------------------|
B|------------------------|
G|----8--6-------6---5----|
D|--7------7---5-------8--|
A|------------------------|
E|------------------------| 

(Guitar 2)
e|------------------------|
B|-------------16~~~------|
G|------------------------|
D|------------------------|
A|------------------------|
E|------------------------|

[Slide]
e|------------------------------|
B|-10/16--14\10--8/14-13\10\8~~-|
G|------------------------------|
D|------------------------------|
A|------------------------------|
E|------------------------------|

[Verse]
(Guitar 1)
e|---------------------------------------------------------------|
B|---------------------------------------------------------------|
G|---------------------------------------------------------------|
D|---------------------------------------------------------------|
A|-7---7-7--7---7--7--8-8/11-11v---7---7-7--7--7--7--8-8/11-11v--|         
E|-5---5-5--5---5--5--6-6/9--9v----5---5-5--5--5--5--6-6/9--9v---|

e|---------------------------------------------------------------|
B|---------------------------------------------------------------|
G|---------------------------------------------------------------|
D|---------------------------------------------------------------|
A|-7---7-7--7---7--7--8-8/11-11v---7---7-7--7--7--7--8-8/11-11v--|
E|-5---5-5--5---5--5--6-6/9--9v----5---5-5--5--5--5--6-6/9--9v---|

[Slide]
e|---------------------------------------------------------------|
B|-13~~~~~------------//17~~~~~-\\13~~~~~~~~~~----//17~~~~~~-----|
G|---------------------------------------------------------------|
D|---------------------------------------------------------------|
A|---------------------------------------------------------------|
E|---------------------------------------------------------------| 

You Know Why       They Call & Just Let it Ring 
e|---------------------------------------------------------------|
B|---------------------------------------------------------------|
G|---------------------------------------------------------------|
D|---------------------------------------------------------------|
A|-7---7-7--7---7--7--8-8/11-11v---7---7-7--7--7--7--8-8/11-11v--|
E|-5---5-5--5---5--5--6-6/9--9v----5---5-5--5--5--5--6-6/9--9v---|

e|---------------------------------------------------------------|
B|-13~~~~~------------//17~~~~~-\\13~~~~~~~~~~----//17~~~~~~-----|
G|---------------------------------------------------------------|
D|---------------------------------------------------------------|
A|---------------------------------------------------------------|
E|---------------------------------------------------------------|

No Reply
e|----------------------------------------------------------------|
B|----------------------------------------------------------------|
G|----------------------------------------------------------------|
D|----------------------------------------------------------------|
A|-7---7-7--7---7--7--8-8/11-11v---7---7-7--7--7--7--12-10-7-10^--|
E|-5---5-5--5---5--5--6-6/9--9v----5---5-5--5--5--5--10--8-5-8^---|

e|---------------------------------------------------------------|
B|-13~~~~~------------//17~~~~~-\\13~~~~~~~~~~----//18~~~~~~-----|
G|---------------------------------------------------------------|
D|---------------------------------------------------------------|
A|---------------------------------------------------------------|
E|---------------------------------------------------------------| 

The Door Was Open I Swear       Ain't No Use in Pickin' Up
e|---------------------------------------------------------------|
B|---------------------------------------------------------------|
G|---------------------------------------------------------------|
D|---------------------------------------------------------------|
A|-7---7-7--7---7--7--8-8/11-11v---7---7-7--7--7--7--8-8/11-11v--|
E|-5---5-5--5---5--5--6-6/9--9v----5---5-5--5--5--5--6-6/9--9v---|

e|---------------------------------------------------------------|
B|-16~~~~~------------//17~~~~~-\\13~~~~~~~~~~----//17~~~~~~-----|
G|---------------------------------------------------------------|
D|---------------------------------------------------------------|
A|---------------------------------------------------------------|
E|---------------------------------------------------------------| 

You Know Why
e|-----------------------------------------------------------|
B|-----------------------------------------------------------|
G|-----------------------------------------------------------|
D|-----------------------------------------------------------|
A|-7---7-7--7---7--7--8-8/11-11v---7---7-7--7--7--7--8~~~~~--|
E|-5---5-5--5---5--5--6-6/9--9v----5---5-5--5--5--5--6~~~~~--|

e|------------------------------------------------------------------|
B|-13~~~~~------------//17~~~~~-\\13~~~~~~~~~~-------\\\\(10)~~~~~--|
G|------------------------------------------------------------------|
D|------------------------------------------------------------------|
A|------------------------------------------------------------------|
E|------------------------------------------------------------------|

[Chorus]
(Guitar 1)
It's All My Head I Know
Or So They Tell Me So   
Until My Head Explodes
e|---------------------------------|
B|---------------------------------|
G|-----14----14-------13-----------|
D|--------14-------13----13----10--|
A|-12-----------11-----------8-----|
E|---------------------------------|

(Guitar 2]
Into My Head it Goes
e|--------------------------------------|
B|--------------------------------------|
G|-----14----14-------13----------------|
D|--------14-------13----13--16~~~~~~~--|
A|-12-----------11-----------14~~~~~~~--|
E|--------------------------------------|

[Verse 2]
e|--------------------------------------------------------------------|
B|--------------------------------------------------------------------|
G|--------------------------------------------------------------------|
D|--------------------------------------------------------------------|
A|-7---7-7--7---7--7--8-8/11-11v---7---7-7--7--7--7-13-11-7-11-13-11--|1x     
E|-5---5-5--5---5--5--6-6/9--9v----5---5-5--5--5--5-11--9-5--9-11--9--|alone 

Tastes So Good        Oh & I Knew it Would 
e|---------------------------------------------------------------|
B|---------------------------------------------------------------|
G|---------------------------------------------------------------|
D|---------------------------------------------------------------|
A|-7---7-7--7---7--7--8-8/11-11v---7---7-7--7--7--7--8-8/11-11v--|
E|-5---5-5--5---5--5--6-6/9--9v----5---5-5--5--5--5--6-6/9--9v---|

e|---------------------------------------------------------------|
B|-13~~~~~------------//17~~~~~-\\13~~~~~~~~~~----//17~~~~~~-----|
G|---------------------------------------------------------------|
D|---------------------------------------------------------------|
A|---------------------------------------------------------------|
E|---------------------------------------------------------------| 

Tastes So Good
e|--------------------------------------------------------------------|
B|--------------------------------------------------------------------|
G|--------------------------------------------------------------------|
D|--------------------------------------------------------------------|
A|-7---7-7--7---7--7--8-8/11-11v---7---7-7--7--7--7-11-13-16-11-9-11--|
E|-5---5-5--5---5--5--6-6/9--9v----5---5-5--5--5--5-9--11-14--9-7--9--|

e|---------------------------------------------------------------|
B|-13~~~~~------------//18~~~~~-\\17~~~~~~~~~~----//18~~~~~~-----|
G|---------------------------------------------------------------|
D|---------------------------------------------------------------|
A|---------------------------------------------------------------|
E|---------------------------------------------------------------|

Burn Like a Match House      Medicate Just to make it Soft
e|---------------------------------------------------------------|
B|---------------------------------------------------------------|
G|---------------------------------------------------------------|
D|---------------------------------------------------------------|
A|-7---7-7--7---7--7--8-8/11-11v---7---7-7--7--7--7--8-8/11-11v--|
E|-5---5-5--5---5--5--6-6/9--9v----5---5-5--5--5--5--6-6/9--9v---|

e|---------------------------------------------------------------|
B|-13~~~~~------------//17~~~~~-\\13~~~~~~~~~~----//17~~~~~~-----|
G|---------------------------------------------------------------|
D|---------------------------------------------------------------|
A|---------------------------------------------------------------|
E|---------------------------------------------------------------| 

Love is Blind
e|--------------------------------------------------------------------|
B|--------------------------------------------------------------------|
G|--------------------------------------------------------------------|
D|--------------------------------------------------------------------|
A|-7---7-7--7---7--7--8-8/11-11v---7---7-7--7--7--7-13-11-7-11-13-11--|      
E|-5---5-5--5---5--5--6-6/9--9v----5---5-5--5--5--5-11--9-5--9-11--9--|

e|--------------------------------------------------------------------|
B|-13~~~~~------------//17~~~~~-\\13~~~~~~~~~~----------13^///(20)~~--|
G|--------------------------------------------------------------------|
D|--------------------------------------------------------------------|
A|--------------------------------------------------------------------|
E|--------------------------------------------------------------------|

Catch and Release Me     What the Hell Were They Thinking Of
e|---------------------------------------------------------------|
B|---------------------------------------------------------------|
G|---------------------------------------------------------------|
D|---------------------------------------------------------------|
A|-7---7-7--7---7--7--8-8/11-11v---7---7-7--7--7--7--8-8/11-11v--|
E|-5---5-5--5---5--5--6-6/9--9v----5---5-5--5--5--5--6-6/9--9v---|

e|---------------------------------------------------------------|
B|-13~~~~~------------//17~~~~~-\\13~~~~~~~~~~----//17~~~~~~-----|
G|---------------------------------------------------------------|
D|---------------------------------------------------------------|
A|---------------------------------------------------------------|
E|---------------------------------------------------------------| 

You Know Why
e|-----------------------------------------------------------|
B|-----------------------------------------------------------|
G|-----------------------------------------------------------|
D|-----------------------------------------------------------|
A|-7---7-7--7---7--7--8-8/11-11v---7---7-7--7--7--7--8~~~~~--|
E|-5---5-5--5---5--5--6-6/9--9v----5---5-5--5--5--5--6~~~~~--|

e|------------------------------------------------------------------|
B|-13~~~~~------------//17~~~~~-\\13~~~~~~~~~~-------\\\\(10)~~~~~--|
G|------------------------------------------------------------------|
D|------------------------------------------------------------------|
A|------------------------------------------------------------------|
E|------------------------------------------------------------------|

[Chorus]
(Guitar 1)
It's All My Head I Know
Or So They Tell Me So 
Until My Head Explodes
e|---------------------------------|
B|---------------------------------|
G|-----14----14-------13-----------|
D|--------14-------13----13----10--|
A|-12-----------11-----------8-----|
E|---------------------------------|

(Guitar 2)
Into My Head it Goes
e|--------------------------------------|
B|--------------------------------------|
G|-----14----14-------13----------------|
D|--------14-------13----13--16~~~~~~~--|
A|-12-----------11-----------14~~~~~~~--|
E|--------------------------------------|

[Long Pause]

(Guitar 1)
e|--------------------------------|
B|--------------------------------|
G|-----8--6-------6---5-----------|
D|---7------7---5-------7-----7---|
A|--------------------------8-----|
E|-5------------------------------| 

e|-------------------------------|------------------------------|
B|-------------------------------|------------------------------|
G|----8--6-------6---5-----------|----8--6-------6---5----------|
D|--7------7---5-------7-----7---|--7------7---5-------7-----7--|
A|-------------------------8-----|-------------------------8----|
E|-------------------------------|------------------------------|

e|-------------------------------|------------------------------|
B|-------------------------------|------------------------------|
G|----8--6-------6---5-----------|----8--6-------6---5----------|
D|--7------7---5-------7----8----|--7------7---5-------7-----7--|
A|------------------------8---8--|-------------------------8----|
E|-------------------------------|------------------------------|
                  
[Slide]
e|---------------------------------|
B|-10/16--14\10--8/14-13\10--5/10--|
G|---------------------------------|
D|---------------------------------|
A|---------------------------------|
E|---------------------------------|

(Guitar 1)
e|----------------------------------|----------------------------------|
B|----------------------------------|----------------------------------|
G|----8--6-5h6v---6--5h6v-----------|----8--6-5h6v---6--5h6v-----------|
D|--7-----------5----------7---8----|--7-----------5----------7-----7--|
A|---------------------------8---8--|----------------------------8-----|
E|----------------------------------|----------------------------------|

[Slide]
e|---------------------------------|---------------------------------|
B|-10/16--14\10--8/14-13\10--5/10--|-10/16--14\10--8/14-13\10--5/10--|
G|---------------------------------|---------------------------------|
D|---------------------------------|---------------------------------|
A|---------------------------------|---------------------------------|
E|---------------------------------|---------------------------------|

(Guitar 1)
e|------------------------------------|
B|------------------------------------|
G|----8--6-------6---5-------6h8-8^v--|
D|--7------7---5-------7-5h7----------|
A|------------------------------------|
E|------------------------------------|

[Slide]
e|---------------------------------|
B|-10/16--14\10--8/14-13\10--5/10--|
G|---------------------------------|
D|---------------------------------|
A|---------------------------------|
E|---------------------------------|

(Drums Pick Up Faster)

(Guitar 1)
e|------------9------------9*-----|------------9-------------9-------|
B|--------------10----------------|--------------10------------10----|
G|----8^-6----------5----8---8-6--|----8--6----------5-----6------8--|
D|--7------7----------7-7---------|--7------7-----------7-7----------|
A|--------------------------------|----------------------------------|
E|--------------------------------|----------------------------------|

[Slide]
e|---------------------------------|---------------------------------|
B|-10/16--14\10--8/14-13\10--5/10--|-10/16--14\10--8/14-13\10--5/10--|
G|---------------------------------|---------------------------------|
D|---------------------------------|---------------------------------|
A|---------------------------------|---------------------------------|
E|---------------------------------|---------------------------------|


************************************

| ~  Vibrato
| /  Slide up
| \  Slide down
| h  Hammer-on
| p  Pull-off
| *  Natural harmonic

************************************
Suggest correction
Creating personal tab
Creating personal tab
You can edit any tab online and save it as your Personal.

You can edit, replace or remove any tab part or add personal notes – all changes will be seen only by you.

Personal tabs can be accessed anytime from any device, even offline.
Learn more »
comments
print report bad tab
6 comments total. Showing first comments.
0 reply
leeaddison 10 Aug 02, 2007 07:34 PM

great tab.

0 reply
mooncc 60 Sep 20, 2007 07:34 PM

played wrong but sounds pretty good. nice job....try watchin this live tho

0 reply
tylersugarcarlo 591 Sep 30, 2007 04:49 PM

i've seen it live a few times. it's an octive lower than usual, but playing it that low gives it a heavier sound when playing alone, which i'm assuming most people do when they read these tabs.

guest
You may want to rate the tab now too:
select rating
Wanna post a correction for this tab? Suggest correction