Oops, an error
Loading. Please wait.
We have Chord Pro version of I Wanna Make It Wit Chu.
It's the closest thing you can get to the original song and it has interactive parts. Check out the tab »
×
20,736 views 3 this week
5 commentsread comments
1 2 3 4 5
x 10
add to favorites
×
Save as Personal and add changes to this tab that will be seen only by you. Learn more ›
×
You can save this tab as Personal to edit and correct it or add notes. All changes will be seen only by you. Learn more »
launch autoscroll
font size
0
reset
how to read this tab
guitar tuner
edit
Autoscroll
slow
fast
+/-
esc
set tempo
stop
Author
I found lots of wrong versions of the main riff of this briliant song here, so I 
figured it out myself and this should be nearly perfect.

NOTE: THIS IS ONLY THE MAIN RIFF, NOT THE WHOLE SONG!!


     E  E  E  E  E  E  E  E     E  E  E  Q    E  E  E   
E||--------------------------|-------------------------|
B||--------------------------|-------------------------|
G||--------------------------|-------------------------|
D||--5--5--5--5--5--5--5--7--|--9--9--9--7----7--7--7--|
A||--5--5--5--5--5--5--5--5--|--7--7--7--7----7--7--7--|
E||--3--3--3--3--3--3--3--3--|--5--5--5--5----5--5--5--|


  E  E  E  E  E  E  E  E     E  E  E  E  E  E  E  E    
--------------------------|--------------------------||
--------------------------|--------------------------||
--------------------------|--------------------------||
--------9--9--------9--9--|--------9--9--------9--9--||
--------7--7--------7--7--|--------7--7--------7--7--||
--0--0--------0--0--------|--0--0--------0--0--------||


Duration Legend
---------------
Q - quarter
E - 8th

Enjoy!
Suggest correction
Creating personal tab
Creating personal tab
You can edit any tab online and save it as your Personal.

You can edit, replace or remove any tab part or add personal notes – all changes will be seen only by you.

Personal tabs can be accessed anytime from any device, even offline.
Learn more »
comments
print report bad tab
5 comments total. Showing first comments.
0 reply
theokwilderbeas 126 Jun 05, 2009 07:50 AM

good as the basic chords (this is exactly what i play) but there is sooo much detail to this song!!! and not of it is in this tab!

0 reply
theokwilderbeas 126 Jun 05, 2009 07:51 AM

*enough of it

0 reply
Shark17 463 Jun 05, 2009 08:21 AM

Well there are the two solos that are missing, but the rest is just improvisation.

guest
You may want to rate the tab now too:
select rating
Wanna post a correction for this tab? Suggest correction