Oops, an error
Loading. Please wait.
We have an official If I Had A Tail tab made by UG professional guitarists. Check out the tab »
×
16,105 views 48 this week
2 commentsread comments
1 2 3 4 5
x 11
add to favorites
×
Save as Personal and add changes to this tab that will be seen only by you. Learn more ›
×
You can save this tab as Personal to edit and correct it or add notes. All changes will be seen only by you. Learn more »
launch autoscroll
font size
0
reset
guitar tuner
edit
Autoscroll
slow
fast
+/-
esc
set tempo
stop
Author
Difficulty
SONG NAME – Queens Of The Stone Age – If I Had A Tail 


Tabbed By : 
Aidan Hall of Abandoned Faith www.abandonedfaith.co.uk
e-mail:aidanhallbass@yahoo.co.uk
Tuning:
Standard

Intro and verse

G|-----9-9-----9-9-----9-9---------------------------------------|
D|------------------------------------9--------------------------|
A|-------------------------77777-9-11----------------------------|
E|9-9-9-9-7-7-7-7-7-7-7-7----------------------------------------|

Chorus (Not too sure on this)

G|-----------------------------------------------------------------|
D|-----------------------------------------------------------------|
A|-----------------------------------------------------------------|
E|0-2-4-7-9-6-7-0-0-0-0-0-0-0-0-0-2-4-7-9-6-7----------------------|


G|-----------------------------------------------------------------|
D|-----------------------------------------------------------------|
A|-----------------------------------------------------------------|
E|0-2-4-9-11-7-9-6-7-0-0-0-0-0-2-4-9-11-7-9-6-7-0-0-0-0-0-0-0------|

guitar solo... bass is as verse

G|-----9-9-----9-9-----9-9---------------------------------------|
D|------------------------------------9--------------------------|
A|-------------------------77777-9-11----------------------------|
E|9-9-9-9-7-7-7-7-7-7-7-7----------------------------------------|

chorus again

G|---------------------------------------------------------------|
D|---------------------------------------------------------------|
A|---------------------------------------------------------------|
E|0-2-4-7-9-6-7-0-0-0-0-0-0-0-0-0-2-4-7-9-6-7--------------------|


G|-----------------------------------------------------------------|
D|-----------------------------------------------------------------|
A|-----------------------------------------------------------------|
E|0-2-4-9-11-7-9-6-7-0-0-0-0-0-2-4-9-11-7-9-6-7-0-0-0-0-0-0-0------|

short guitar break and comes in with..

G|13-13-13-11-9-------9-9-----9-9-----9-9------------------------|
D|---------------------------------------------------9-----------|
A|----------------------------------------77777-9-11-------------|
E|---------------9-9-9-9-7-7-7-7-7-7-7-7-------------------------|

Last bit..

G|-----------------------------------------------------------------|
D|-----------------------------------------------------------------|
A|-----------------------------------------------------------------|
E|2-2-2-2-2-2-0-2-2-2-2-2-2-0-2-2-2-2-2-2-0-2-2-2-2-2-2-etc--------|


| /  slide up
| \  slide down
| h  hammer-on
| p  pull-off
| ~  vibrato
| +  harmonic
| x  Mute note

            
            
Suggest correction
Creating personal tab
Creating personal tab
You can edit any tab online and save it as your Personal.

You can edit, replace or remove any tab part or add personal notes – all changes will be seen only by you.

Personal tabs can be accessed anytime from any device, even offline.
Learn more »
comments
print report bad tab
2 comments total.
+1 reply
Gandar54 10 Sep 18, 2013 04:40 PM

This is my first time ever trying to tab something, but I think this works a bit better for the chorus.
G|---------------------------------------------------------------------|
D|-------9-11-8-9------------------------9-11-8-9----------------------|
A|7-9-11----------7-7-7-7-7-7-7-7-7-9-11-------------------------------|
E|---------------------------------------------------------------------|

G|---------------------------------------------------------------------|
D|-------11-13-9-11-8-9----------------11-13-9-11-8-9------------------|
A|7-9-11----------------7-7-7-7-7-9-11---------------------------------|
E|---------------------------------------------------------------------|

0 reply
Pandaman735 10 Sep 30, 2013 10:06 AM

I just mimic the guitar riff for the chorus section.

G|------------------------------------------------------------------------|
D|------------------------------------------------------------------------|
A|---------2----4------2--------------------------------------------------|
E|---0h2h4--------6------0----0-0-----------------------------------------| x2

G|------------------------------------------------------------------------|
D|------------------------------------------------------------------------|
A|---------4----6------4------2-------------------------------------------|
E|---0h2h4--------7------6------0-----------------------------------------| x2

guest
You may want to rate the tab now too:
select rating
Wanna post a correction for this tab? Suggest correction