Oops, an error
Loading. Please wait.

If Only bass

version 1
version 1

Whole song

Interactive

8,097 views 12 this week
1 commentread comment
1 2 3 4 5
1 last vote to show rating
add to favorites
×
Save as Personal and add changes to this tab that will be seen only by you. Learn more ›
×
You can save this tab as Personal to edit and correct it or add notes. All changes will be seen only by you. Learn more »
launch autoscroll
font size
0
reset
guitar tuner
backing track
0:00
0:00
edit
Autoscroll
slow
fast
+/-
esc
set tempo
stop
Author
Song: If only
ALbum: Queens of the stone age
ARtist: Queens of the stone age
Bassist: Nick Oliveri

Intro: (wait about two and a quarter bars, then enter)
E |---------------------------------------------|
B |-----9---------------------------------------|
F#|---7---7--5-5-5-----3h5----------------------|
C#|----------------3h5--------------------------|

Verse: (Nick has some little fills he does, but i dont bother to copy him EXACTLY, just 
really hard to get them.)
E |---------------------------------------------|
B |-------10-----9---------[10-9-7h9]-----------|
F#|---8-8----8/7--(7)-5-5-5-----3h5-------------|   ()=Optional
C#|-------------------------3h5-----------------|   []=One of the many fills

E |---------------------------------------------|
B |--------3~-3-3-3-3---------------------------|
F#|---5-3~------------2-3-4---------------------|      ~=Let ring
C#|---------------------------------------------|

THats about it, fun song to play. When the song ends don't play from the F#|-5---- on. 
fun.

            
            
Suggest correction
Creating personal tab
Creating personal tab
You can edit any tab online and save it as your Personal.

You can edit, replace or remove any tab part or add personal notes – all changes will be seen only by you.

Personal tabs can be accessed anytime from any device, even offline.
Learn more »
Give kudos to tab author, rate the tab!
1 2 3 4 5
comments
print report bad tab
1 comment total.
0 reply
Notoriousdoc 195 Jun 21, 2008 03:55 AM

Actually Josh played the bass on this :]

guest
You may want to rate the tab now too:
select rating
Wanna post a correction for this tab? Suggest correction