Oops, an error
Loading. Please wait.

If Only solo tab

version 1
version 1

Solo

Whole song

Interactive

17,569 views 1 this week
2 commentsread comments
1 2 3 4 5
x 6
add to favorites
×
Save as Personal and add changes to this tab that will be seen only by you. Learn more ›
×
You can save this tab as Personal to edit and correct it or add notes. All changes will be seen only by you. Learn more »
launch autoscroll
font size
0
reset
how to read this tab
guitar tuner
backing track
0:00
0:00
edit
Autoscroll
slow
fast
+/-
esc
set tempo
stop
Author
If only - solo
Queens of the stone age

About 99%, it's the tab by drewheasman but with a few minor adjustments. enjoy.

Solo 1 part 1
e|----------------------------------------------------------------------|
B|----------------------------------------------------------------------|
G|----------------------------------------------------------------------|
D|-------5b-5r----------------------------------------------------------|
A|-----4-------4-6-6b-6-4----4--4--4h6p4\3--3h4p3\1--1--1---------------|
E|-4h6--------------------6--------------------------------4--6--6------|

Solo 1 part 2
e|----------------------------------------------------------------------|
B|--------------------------------------9-11-9-11----9----9-------------|
G|----6-8-6h8p6---6-8p6-8/10-10-10—8h10-----------10---10---10-8—6------|
D|-/8-----------8-------------------------------------------------------|
A|----------------------------------------------------------------------|
E|----------------------------------------------------------------------|

e|----------------------------------------------------------------------|
B|----------------------------9-11-11-9-11-11-9-11b-11b-9h11p9----------|
G|--8-6-8/10-10-10-10-10-8-10----------------------------------10-------|
D|----------------------------------------------------------------------|
A|----------------------------------------------------------------------|
E|----------------------------------------------------------------------|

Solo 2
e|---------------------------------------------------------------------------|
B|---------------------------------------------------------------------------|
G|---------------------------------------------------------------------------|
D|----------13-13--13-13--13-13--13-13--13-13--13-13--13-13--13-13--13--13---|
A|---------------------------------------------------------------------------|
E|---------------------------------------------------------------------------|
  (Feedback)

e|---------------------------------------------------------------------------|
B|---------------------------------------------------------------------------|
G|---------------------------------------------------------------------------|
D|-11--11--13p11-----------------------------------------11-13-13--13-13-----|
A|---------------13-13--11-13-13--13-13-13--13-13-13--13---------------------|
E|---------------------------------------------------------------------------|

e|---------------------------------------------------------------------------|
B|---------------------------------------------------------------------------|
G|---------------------------------------------------------------------------|
D|-13-13--13-13--13-13--13-13--13B-13--11-13-11----------11----11-13---------|
A|----------------------------------------------13-11-13----13-------13------|
E|---------------------------------------------------------------------------|

e|---------------------------------------------------------------------------|
B|---------------------------------------------------------------------------|
G|---------------------------------------------------------------------------|
D|---------------------------------------------------------------------------|
A|-11h13-11h13~--------------------------------------------------------------|
E|---------------------------------------------------------------------------|

Suggest correction
Creating personal tab
Creating personal tab
You can edit any tab online and save it as your Personal.

You can edit, replace or remove any tab part or add personal notes – all changes will be seen only by you.

Personal tabs can be accessed anytime from any device, even offline.
Learn more »
comments
print report bad tab
2 comments total.
0 reply
TheBobDoleExp 10 Feb 26, 2007 08:21 AM

Very Good tab. Original Song is in C but this sounds good and i dont have to tune down. Thumbs Up

0 reply
TheBobDoleExp 10 Mar 02, 2007 09:49 AM

i hate to take it back but there is quite a bit missing from the first solo

guest
You may want to rate the tab now too:
select rating
Wanna post a correction for this tab? Suggest correction