Oops, an error
Loading. Please wait.

If Only bass

version 3
version 3

Whole song

Interactive

2,808 views 9 this week
2 commentsread comments
1 2 3 4 5
x 6
add to favorites
×
Save as Personal and add changes to this tab that will be seen only by you. Learn more ›
×
You can save this tab as Personal to edit and correct it or add notes. All changes will be seen only by you. Learn more »
launch autoscroll
font size
0
reset
guitar tuner
backing track
0:00
0:00
edit
Autoscroll
slow
fast
+/-
esc
set tempo
stop
Queens Of The Stone Age- If Only

Wait for 2 or 3 measures and come in after drums

Intro

G-----------------------------|
D-----------------------------|
A-------3-3---1-1-11-11-1-1---|
E-----------------------------|

Main Riff (Verse)

G-----------------------------|
D-----------------------------|
A-4-4-4---3-3--1-1-11-11-1-1--|
E-----------------------------|

Chorus (If Only....)

G-----------------------------|
D-----------------------------|
A--1---1-/-4---4-4--4-4-------|
E-----------------------------|

Outro

G-----------------------------|
D-----------------------------|
A-4-4-4---3-3-----------------|
E-----------------------------|

Intro   4x
Verse  10x
Chorus  4x
Verse  18x
Chorus  8x
Verse  10x
Outro   1x

By: Simon
Email: sbjerre_pedersen@hotmail.com
Suggest correction
Creating personal tab
Creating personal tab
You can edit any tab online and save it as your Personal.

You can edit, replace or remove any tab part or add personal notes – all changes will be seen only by you.

Personal tabs can be accessed anytime from any device, even offline.
Learn more »
comments
print report bad tab
2 comments total.
0 reply
Buffilax 10 May 03, 2009 05:56 AM

Good Tab! But I think the 3rd 4 and 2nd 3 of the main riff should be a fifth so It's like
D----6--5------------
A--44--3-1-1-11-11-1-1 at least thats it it sounds to me and it sounds right if played along to the recording

0 reply
hiyabuddy69 232 Jun 03, 2009 05:09 AM

so bad

guest
Wanna post a correction for this tab? Suggest correction