Oops, an error
Loading. Please wait.

Im Designer bass

version 1
version 1

Whole song

Interactive

1,400 views 1 this week
1 commentread comment
1 2 3 4 5
x 3
add to favorites
×
Save as Personal and add changes to this tab that will be seen only by you. Learn more ›
×
You can save this tab as Personal to edit and correct it or add notes. All changes will be seen only by you. Learn more »
launch autoscroll
font size
0
reset
guitar tuner
edit
Autoscroll
slow
fast
+/-
esc
set tempo
stop
Difficulty
This is my first tab and it seems close to perfect, so check it out.
Standard tuning
The parts are kind of confusing when it comes to what goes where and if i have something 
wrong then sorry, my fault.

Intro
E-9>2----|
A--------|
D--------|
G--------|

Verse
E---------------------------|
A-2-0-2---3-2-2-0-2---2-3---|
D-------1-----------1-------|
G---------------------------|

Bridge #1
E----------------------|
A---------2-2-0-2-0-2--|
D-3-3-1-1--------------|
G----------------------|

Chorus
E--------------------------------------|
A-0>2-2-2-2-2-2-2-2-2-0-0-0-0-0-0-0-0--|
D--------------------------------------|
G--------------------------------------|

Bridge #2

E--------------------------|
A-0>2-2-0>2-2--------------|
D-------------0>1-1-0>1-1--|
G--------------------------|

            
            
Suggest correction
Creating personal tab
Creating personal tab
You can edit any tab online and save it as your Personal.

You can edit, replace or remove any tab part or add personal notes – all changes will be seen only by you.

Personal tabs can be accessed anytime from any device, even offline.
Learn more »
Give kudos to tab author, rate the tab!
1 2 3 4 5
comments
print report bad tab
1 comment total.
0 reply
gajzler 70 Mar 23, 2008 03:19 AM

You´ve tabbed it for lefties. Its ok but looks strange for me...

guest
Wanna post a correction for this tab? Suggest correction