Oops, an error
Loading. Please wait.
We have an official In My Head tab made by UG professional guitarists. Check out the tab »
×

In My Head bass

version 2
version 2

Whole song

2,849 views 9 this week
4 commentsread comments
1 2 3 4 5
x 9
add to favorites
×
Save as Personal and add changes to this tab that will be seen only by you. Learn more ›
×
You can save this tab as Personal to edit and correct it or add notes. All changes will be seen only by you. Learn more »
launch autoscroll
font size
0
reset
guitar tuner
backing track
0:00
0:00
edit
Autoscroll
slow
fast
+/-
esc
set tempo
stop
Author
Queens Of The Stone Age - In My Head
Tabbed by revolt! (onlysmartieshavetheanswer66@hotmail.com)

(00:00)
X1
G|-9-9-9-9-9-9-9-9-9-9-9-9-7/9-7-----------------------------------------|
D|-------------------------------9-7-------------------------------------|
A|-----------------------------------10-10-10-10-10-10-10-10-10-10-10-10-|
E|-----------------------------------------------------------------------|

X1
G|-7/9-7-----7-7-7-7-7-7-7-7-7-7-7-7-7-7-7-7---8-8-8-8-8-8-8-8-8-8-8-8-8-8-------|
D|-------9-7---------------------------------8-----------------------------8-8-8-|
A|-------------------------------------------------------------------------------|
E|-------------------------------------------------------------------------------|

X2
G|---------------------------------------------------------------|
D|---------------------------------------------------------------|
A|-7-7-7-7-7-7-7-7-----------------------------------------------|
E|-----------------8-8-8-8-8-8-8-8-9-9-9-9-9-9-9-9-5-5-5-5-3-5-3-|

X1
G|---------------------------------------------------------------|
D|-----------------5-5-5-5-5-5-5-5-------------------------------|
A|-7-7-7-7-7-7-7-7-----------------------------------------------|
E|---------------------------------9-9-9-9-9-9-9-9-5-5-5-5-3-5-3-|

X1
G|---------------------------------------------------------------|
D|---------------------------------------------------------------|
A|-7-7-7-7-7-7-7-7-----------------------------------------------|
E|-----------------8-8-8-8-8-8-8-8-9-9-9-9-9-9-9-9-5-5-5-5-3-5-3-|

X1
G|-------------------------7/9-7-----------------------------------------|
D|-------------------------------9-7-------------------------------------|
A|-7-7-7-7-7-7-7-7-7-7-7-7-----------10-10-10-10-10-10-10-10-10-10-10-10-|
E|-----------------------------------------------------------------------|

X1
G|-7/9-7-----7-7-7-7-7-7-7-7-7-7-7-7-7-7-7-7---8-8-8-8-8-8-8-8-8-8-8-8-8-8-|
D|-------9-7---------------------------------8-----------------------------|
A|-------------------------------------------------------------------------|
E|-------------------------------------------------------------------------|

X2
G|---------------------------------------------------------------|
D|---------------------------------------------------------------|
A|-7-7-7-7-7-7-7-7-----------------------------------------------|
E|-----------------8-8-8-8-8-8-8-8-9-9-9-9-9-9-9-9-5-5-5-5-3-5-3-|

X2
G|---------------------------------------------------------------|
D|-----------------5-5-5-5-5-5-5-5-------------------------------|
A|-7-7-7-7-7-7-7-7-----------------------------------------------|
E|---------------------------------9-9-9-9-9-9-9-9-5-5-5-5-3-5-3-|

X2
G|-------------------------7/9-7-----------------------------------------|
D|-------------------------------9-7-------------------------------------|
A|-7-7-7-7-7-7-7-7-7-7-7-7-----------10-10-10-10-10-10-10-10-10-10-10-10-|
E|-----------------------------------------------------------------------|

G|-7/9-7-----7-7-7-7-7-7-7-7-7-7-7-7-7-7-7-7---8-8-8-8-8-8-8-8-8-8-8-8-8-8-------|
D|-------9-7---------------------------------8-----------------------------8-8-8-|
A|-------------------------------------------------------------------------------|
E|-------------------------------------------------------------------------------|

X3
G|------------------------------------------|
D|------------------------------------------|
A|----------------------------5--5-5-5-5-5-5|
E|-7--7-7-7-7-7-7-3-3-3-0-0-0---------------|

X1
G|----------------------------|
D|----------------------------|
A|----------------------------|
E|-7--7-7-7-7-7-7-3-3-3-0-0-0-|

X1
G|---------------------------------------------------------------|
D|---------------------------------------------------------------|
A|-7-7-7-7-7-7-7-7-----------------------------------------------|
E|-----------------8-8-8-8-8-8-8-8-9-9-9-9-9-9-9-9-5-5-5-5-3-5-3-|

X1
G|---------------------------------------------------------------|
D|-----------------5-5-5-5-5-5-5-5-------------------------------|
A|-7-7-7-7-7-7-7-7-----------------------------------------------|
E|---------------------------------9-9-9-9-9-9-9-9-5-5-5-5-3-5-3-|

X1
G|---------------------------|
D|---------------------------|
A|---------------5~-------6~-|
E|-0~-----3~------------6----|

X2
G|-------------------------7/9-7-----------------------------------------|
D|-------------------------------9-7-------------------------------------|
A|-7-7-7-7-7-7-7-7-7-7-7-7-----------10-10-10-10-10-10-10-10-10-10-10-10-|
E|-----------------------------------------------------------------------|

G|-7/9-7-----7-7-7-7-7-7-7-7-7-7-7-7-7-7-7-7---8-8-8-8-8-8-8-8-8-8-8-8-8-8-------|
D|-------9-7---------------------------------8-----------------------------8-8-8-|
A|-------------------------------------------------------------------------------|
E|-------------------------------------------------------------------------------|

X1
G|-------------------------------------------------------------|
D|-------------------------------5-5-5-5-5-5-5-5---------------|
A|-7-7-7-7-7-7-7-7-5-7-5-7-5-7-5-----------------5-7-5-7-5-7-5-|
E|-------------------------------------------------------------|

X1
G|--------------------------------------------------------------------------------|
D|--------------------------------------------------------------------------------|
A|-5-5-5-5-5-5-5-5-5-5-5-5-5-5-5-5---6-6-6-6-6-6-6-6-6-6-6-6-6-6-6-6-7~---10~/12~-|
E|---------------------------------7----------------------------------------------|
Suggest correction
Creating personal tab
Creating personal tab
You can edit any tab online and save it as your Personal.

You can edit, replace or remove any tab part or add personal notes – all changes will be seen only by you.

Personal tabs can be accessed anytime from any device, even offline.
Learn more »
comments
print report bad tab
4 comments total. Showing first comments.
+1 reply
Jerryzzz 92 Oct 19, 2006 02:50 PM

Totally crap Dude...

-1 reply
jamhead1000 10 Jul 14, 2007 11:26 AM

shut the **** up dude. anyway this is a very good tabe well done its got all the right notes in the right key good work :)

+1 reply
Gbson Guy 10 Jul 30, 2007 05:59 PM

this isnt right, theres already a perfect tab out there so idk y ur tryin :\

guest
You may want to rate the tab now too:
select rating
Wanna post a correction for this tab? Suggest correction