Oops, an error
Loading. Please wait.
We have an official In My Head tab made by UG professional guitarists. Check out the tab »
×

In My Head bass

version 5
version 5

Whole song

604 views 15 this week
no commentswrite comment
1 2 3 4 5
x 3
add to favorites
×
Save as Personal and add changes to this tab that will be seen only by you. Learn more ›
×
You can save this tab as Personal to edit and correct it or add notes. All changes will be seen only by you. Learn more »
launch autoscroll
font size
0
reset
guitar tuner
backing track
0:00
0:00
edit
Autoscroll
slow
fast
+/-
esc
set tempo
stop
Author
Difficulty
About this tab version
Lots of good tabs, but I think this we'll prove to be the most accurate. I made this tab to help my bass player learn the song faster. Was this info helpful? Yes No
-------------------------------------------------------------------------------
                             SONG NAME - In My Head
-------------------------------------------------------------------------------
Tabbed by: ViaThePants
E-mail: 

Tuning: Standard

Intro 

G|-9-9-9-9-9-9-9-9-|-9-9-9-9--7/9--7------|-----------------|---------7/9--7---------|
D|-----------------|-----------------9--7-|-5-5-5-5-5-5-5-5-|-5-5-5-5----------7--9--|
A|-----------------|----------------------|-----------------|------------------------|
E|-----------------|----------------------|-----------------|------------------------|

G|-7-7-7-7-7-7-7-7-|-7-7-7-7-7-7-7---|-8-8-8-8-8-8-8-8-|-8-8-8-8-8-4-4-4---------|
D|-----------------|---------------9-|-----------------|-------------------------|
A|-----------------|-----------------|-----------------|-------------------------|
E|-----------------|-----------------|-----------------|-------------------------|

Verse 

G|-----------------|------------------|------------------|-----------------------|
D|-----------------|------------------|------------------|-----------------------|
A|---------------3-|--3-3-3-3-3-3-3-4-|--4-4-4-4-4-4-4---|-----------------------|
E|-0-0-0-0-0-0-0---|------------------|----------------5-|--5--5-3-5-3-----------|

Chorus 

G|-----------------|---------7/9--7-------|-----------------|---------7/9--7-------|
D|-----------------|-----------------9--7-|-5-5-5-5-5-5-5-5-|-5-5-5-5---------7--9-|
A|-7-7-7-7-7-7-7-7-|-7-7-7-7--------------|-----------------|----------------------|
E|-----------------|----------------------|-----------------|----------------------|

G|-7-7-7-7-7-7-7-7-|-7-7-7-7-7-7-7---|-----------------|-----------------|
D|-----------------|---------------9-|-----------------|-----------------|
A|-----------------|-----------------|-6-6-6-6-6-6-6-6-|-6-6-6-6-6-6-6-6-|
E|-----------------|-----------------|-----------------|-----------------|

Interlude (After Second chorus last note of chorus changes to start interlude)

G|-----|-------------------|-----------------|------------------|--------------====|
D|-----|-------------------|-----------------|------------------|--------------====|
A|-2---|--2-2-2-2-2-2------|-------------5---|--5-5-5-5-5-5-2---|--2-2-2-2-2-2-----|
E|-----|---------------3---|--3-3-0--0-0-----|------------------|--------------3---|

G|-----------------|------------------|------------------|-----------------|------------------|
D|-----------------|------------------|------------------|-----------------|------------------|
A|-------------5---|--5-5-5-5-5-5-2---|--2-2-2-2-2-2-----|-------------5---|--5-5-5-5-5-5-2---|
E|--3-3-0--0-0-----|------------------|--------------3---|--3-3-0--0-0-----|------------------|

G|------------------|----------------|
D|------------------|----------------|
A|--2-2-2-2-2-2-----|----------------|
E|--------------3---|--3-3-0--0-0----|

Bridge

G|-----------|-----------|----------|----------|----------|----------|----------|----------|
D|-----------|-----------|----------|----------|----------|----------|----------|----------|
A|-----------|-----------|----------|----------|-5--------|----------|-6--------|----------|
E|-0---------|-----------|-3--------|----------|----------|----------|----------|----------|

Riff Order:

Intro x1
Verse x 4
Chorus x 1
Verse x 4
Chorus x 2
Interlude
Verse x 2   (Pre-Bridge)
Bridge x 1
Chorus x 1
Solo (Chorus x 2)

Last notes in chorus played octave up (like intro) on the last time played during solo.



| /  slide up
| \  slide down
| h  hammer-on
| p  pull-off
| ~  vibrato
| +  harmonic
| x  Mute note
===============================================================================

            
            
Suggest correction
Creating personal tab
Creating personal tab
You can edit any tab online and save it as your Personal.

You can edit, replace or remove any tab part or add personal notes – all changes will be seen only by you.

Personal tabs can be accessed anytime from any device, even offline.
Learn more »
Give kudos to tab author, rate the tab!
1 2 3 4 5
comments
print report bad tab
guest
You may want to rate the tab now too:
select rating
Wanna post a correction for this tab? Suggest correction