Oops, an error
Loading. Please wait.

In The Fade Bass

version 1
version 1

Whole song

Interactive

9,000 views 9 this week
2 commentsread comments
1 2 3 4 5
x 5
add to favorites
launch autoscroll
font size
0
reset
guitar tuner
×
Best way to learn
"In The Fade"
Autoscroll
slow
fast
+/-
esc
set tempo
stop
Difficulty
intermediate
                        QOTSA-In The Fade

INTRO
G--------|
D--------|
A--REST--|
E--------|

VERSE
G-----------------------------------------------------|
D-14-14-14-----------------14-14-14--------------14---|
A----------14-16-14-16--------------14-16-14-16-------|
E---------------------------------------------------12|

G-----------------------------------------------------|
D-14-14-14-----------------14-14-14--------------14---|
A----------14-16-14-16--------------14-16-14-16-------|
E---------------------------------------------------12|

G------------------------------------------------------------|
D-14-14-14-----------------14-14-14--------------------9-11--|
A----------14-16-14-16--------------14-16-14-16--9/11\-------|
E------------------------------------------------------------|

G-----------------------------------------------------------------|
D-14-14-14-----------------14-14-14-------------------------------|
A----------14-16-14-16--------------14-16-14-16--16-14-------16-14|
E------------------------------------------------------14-14------|

CHORUS
G-----------------------------------|
D-----------------------------------| x4
A-----------------------------------|
E-5555555555555555h7/12-12\9-9999999|

G--------------------------------------------------------|
D--------------------------------------------------------| x4
A-------------------/16p14----14-16-(make your own fills)|
E-5-5-5-5-5-5-5-5h7--------16----------------------------|

VERSE
G-----------------------------------------------------|
D-14-14-14-----------------14-14-14--------------14---|
A----------14-16-14-16--------------14-16-14-16-------|
E---------------------------------------------------12|

G-----------------------------------------------------|
D-14-14-14-----------------14-14-14--------------14---|
A----------14-16-14-16--------------14-16-14-16-------|
E---------------------------------------------------12|

G------------------------------------------------------------|
D-14-14-14-----------------14-14-14--------------------9-11--|
A----------14-16-14-16--------------14-16-14-16--9/11\-------|
E------------------------------------------------------------|

G-----------------------------------------------------|
D-14-14-14-----------------14-14-14--------------14---| x?
A----------14-16-14-16--------------14-16-14-16-------| (make your own fills
E---------------------------------------------------12|  when neccesary)

CHORUS
G-----------------------------------|
D-----------------------------------| x4
A-----------------------------------|
E-5555555555555555h7/12-12\9-9999999|

G--------------------------------------------------------|
D--------------------------------------------------------| x4
A-------------------/16p14----14-16-(make your own fills)|
E-5-5-5-5-5-5-5-5h7--------16----------------------------|

OUTRO
G-------------------|
D-------------------| Continue into fade out.
A-----44----44----44|
E-5555--5555--5555--|

I keep seeing incorrect QOTSA songs so I'll keep tabbing them.
(From: the guy with the correct I Think I Lost My Headache tab and future songs that I 
to be correct.)
Suggest correction
comments
print report bad tab
2 comments total.
0 reply
SaucyRebel 72 Apr 18, 2012 11:45 PM

I dont like your comment at the end, but I will make this as constructive as possible.

The Positive:
This tab is a great start. Right tuning, right notes.

The Negative:
Its easy to "corrctly" tab a QOTSA song when instead of tabbing the hardest parts you put "make your own fills." If I wanted to "make my own fills" I would have tabbed the song myself. Ignoring the hard parts does not make your tab correct.

Poor attitude = poor rating

If your going to take such an elitist approach, at least make sure you have the song 100% down. Other than that, thank you for the basic structure of the song. :)

Cheers

0 reply
butron810 10 Jan 21, 2015 12:41 PM

Lack of accuracy. The key is in C#, the contributor has the resolution tone ending on E (12) instead of C# (9). Verse is too far up the neck. Should center around frets 9-11.

guest
You may want to rate the tab now too:
select rating
Wanna post a correction for this tab? Suggest correction