Oops, an error
Loading. Please wait.

In The Fade tab

version 1
version 1

Interactive

3,836 views 12 this week
5 commentsread comments
1 2 3 4 5
x 7
add to favorites
×
Save as Personal and add changes to this tab that will be seen only by you. Learn more ›
×
You can save this tab as Personal to edit and correct it or add notes. All changes will be seen only by you. Learn more »
launch autoscroll
font size
0
reset
how to read this tab
guitar tuner
edit
Autoscroll
slow
fast
+/-
esc
set tempo
stop
Author
This has taken me ages. So if you have any problems fix them yourself.

Normal Tuning
Notes in brackets are optional to play.

Intro

E||-----------------------------------||
B||--------9-11-----------9-11--------||
G||-9--10--9-11----9--10--9-11--------||
D||-11-11----11----11-11----11--------||
A||-----------------------------------||
E||-----------------------------------||

E||-----------------------------------||
B||---------9-11----------9-11--------||
G||-9---10--9-11---9--10--9-11--------||
D||-11-(11)---11---11-11----11--------||
A||-----------------------------------||
E||-----------------------------------||
   Cracks in the ceiling, crooked pictures in the hall

E||-----------------------------------||
B||--------9-11-----------9-11--------||
G||-9--10--9-11----9--10--9-11--------||
D||-11-11----11----11-11----11--------||
A||-----------------------------------||
E||-----------------------------------||
   Countin and breathin, I’m leavin here tomorrow


Verse I (0:42)

E||--------------------------------------||
B||----------12-12-12-----------15-15-15-||
G||-13-13-13-----------14-14-14----------||
D||--------------------------------------||
A||--------------------------------------||
E||--------------------------------------||
   Way down low,          I never do you any 

E||--------------------------------------||
B||----------12-12-12-----------14-14-14-||
G||-13-13-13-----------14-14-14----------||
D||--------------------------------------||
A||--------------------------------------||
E||--------------------------------------||
   Good

E||--------------------------------------||
B||----------12-12-12-----------15-15-15-||
G||-13-13-13-----------14-14-14----------||
D||--------------------------------------||
A||--------------------------------------||
E||--------------------------------------||
   Laughin is easy,         I would if I

E||--------------------------------------||
B||----------12-12-12-----------14-14-14-||
G||-13-13-13-----------14-14-14----------||
D||--------------------------------------||
A||--------------------------------------||
E||--------------------------------------||
   Could


Bridge (1:05)

E||-0--0--0--0--0--0--0---0-0-0--0--0--0--0--0--||
B||-0--0--0--0--0--0--0---0-0-0--0--0--0--0--0--||
G||(6)(6)(6)(6)(6)(6)(6)--7-7-7--0--0--0--0--0--||
D||-7--7--7--7--7--7--7---7-7-7--11-11-11-11-11-||
A||-7--7--7--7--7--7--7---9-9-9--11-11-11-11-11-||
E||-5--5--5--5--5--5--5---x-x-x--9--9--9—-9—-9--||
  Ain’t gonna run,        just live till you die wanna

E||-0--0--0--0--0--0--0---0-0-0--0--0--0--0--0--||
B||-0--0--0--0--0--0--0---0-0-0--0--0--0--0--0--||
G||(6)(6)(6)(6)(6)(6)(6)--7-7-7--0--0--0--0--0--||
D||-7--7--7--7--7--7--7---7-7-7--11-11-11-11-11-||
A||-7--7--7--7--7--7--7---9-9-9--11-11-11-11-11-||
E||-5--5--5--5--5--5--5---x-x-x--9--9--9—-9—-9--||
   Drown                With nowhere to fall into the

E||-0--0--0--0--0--0--0---0-0-0--0--0--0--0--0--||
B||-0--0--0--0--0--0--0---0-0-0--0--0--0--0--0--||
G||(6)(6)(6)(6)(6)(6)(6)--7-7-7--0--0--0--0--0--||
D||-7--7--7--7--7--7--7---7-7-7--11-11-11-11-11-||
A||-7--7--7--7--7--7--7---9-9-9--11-11-11-11-11-||
E||-5--5--5--5--5--5--5---x-x-x--9--9--9—-9—-9--||
   Arms of someone       There’s nothing to save and I

E||-0--0--0--0--0--0--0---0-0-0--0--0--0--0--0--||
B||-0--0--0--0--0--0--0---0-0-0--0--0--0--0--0--||
G||(6)(6)(6)(6)(6)(6)(6)--7-7-7--0--0--0--0--0--||
D||-7--7--7--7--7--7--7---7-7-7--11-11-11-11-11-||
A||-7--7--7--7--7--7--7---9-9-9--11-11-11-11-11-||
E||-5--5--5--5--5--5--5---x-x-x--9--9--9—-9—-9--||
   Know                 You live till you die



Chorus (1:29)

E||--------------------------------------||
B||--------------------------------------||
G||------9---13-9------------------------||
D||-9h11----------11p9-11-9h11-----------||
A||--------------------------------------||
E||--------------------------------------||

E||-0-0-0---0--0--0--0--0----------------||
B||-0-0-0---0--0--0--0--0----------------||
G||-9-9-9---0--0--0--0--0----------------||
D||-9-9-9---11-11-11-11-11---------------||
A||-7-7-7---11-11-11-11-11---------------||
E||-x-x-x---9--9--9--9--9----------------||
   Live till you die I 

E||--------------------------------------||
B||--------------------------------------||
G||------9---13-9------------------------||
D||-9h11----------11p9-11-9h11-----------||
A||--------------------------------------||
E||--------------------------------------||
   Know

E||-0-0-0---0--0--0--0--0----------------||
B||-0-0-0---0--0--0--0--0----------------||
G||-9-9-9---0--0--0--0--0----------------||
D||-9-9-9---11-11-11-11-11---------------||
A||-7-7-7---11-11-11-11-11---------------||
E||-x-x-x---9--9--9--9--9----------------||
   Live till you die I

E||--------------------------------------||
B||---------------12---------------------||
G||------9---13-9----13-14p13------------||
D||-9h11---------------------------------||
A||--------------------------------------||
E||--------------------------------------||
   Know

E||-0-0-0---0--0--0--0--0----------------||
B||-0-0-0---0--0--0--0--0----------------||
G||-9-9-9---0--0--0--0--0----------------||
D||-9-9-9---11-11-11-11-11---------------||
A||-7-7-7---11-11-11-11-11---------------||
E||-x-x-x---9--9--9--9--9----------------||
   Live till you die I

E||--------------------------------------||
B||--------------------------------------||
G||------9---13-9------------------------||
D||-9h11----------11p9-11-9h11-----------||
A||--------------------------------------||
E||--------------------------------------||
   Know

E||-0-0-0---0--0--0--0--0----------------||
B||-0-0-0---0--0--0--0--0----------------||
G||-9-9-9---0--0--0--0--0----------------||
D||-9-9-9---11-11-11-11-11---------------||
A||-7-7-7---11-11-11-11-11---------------||
E||-x-x-x---9--9--9--9--9----------------||
   Live till you die


Verse II (1:52)

E||--------------------------------------||
B||----------12-12-12-----------15-15-15-||
G||-13-13-13-----------14-14-14----------||
D||--------------------------------------||
A||--------------------------------------||
E||--------------------------------------||

E||--------------------------------------||
B||----------12-12-12-----------14-14-14-||
G||-13-13-13-----------14-14-14----------||
D||--------------------------------------||
A||--------------------------------------||
E||--------------------------------------||

E||--------------------------------------||
B||----------12-12-12-----------15-15-15-||
G||-13-13-13-----------14-14-14----------||
D||--------------------------------------||
A||--------------------------------------||
E||--------------------------------------||
   Losing feeling, but        I couldn’t get

E||--------------------------------------||
B||----------12-12-12-----------14-14-14-||
G||-13-13-13-----------14-14-14----------||
D||--------------------------------------||
A||--------------------------------------||
E||--------------------------------------||
   Away
E||--------------------------------------||
B||----------12-12-12-----------15-15-15-||
G||-13-13-13-----------14-14-14----------||
D||--------------------------------------||
A||--------------------------------------||
E||--------------------------------------||
   Countin and breathin,      disappearin in the 

E||--------------------------------------||
B||----------12-12-12-----------14-14-14-||
G||-13-13-13-----------14-14-14----------||
D||--------------------------------------||
A||--------------------------------------||
E||--------------------------------------||
   Fade

E||--------------------------------------||
B||----------12-12-12-----------15-15-15-||
G||-13-13-13-----------14-14-14----------||
D||--------------------------------------||
A||--------------------------------------||
E||--------------------------------------||
   Lay down low,              I never do you any

E||--------------------------------------||
B||----------12-12-12-----------14-14-14-||
G||-13-13-13-----------14-14-14----------||
D||--------------------------------------||
A||--------------------------------------||
E||--------------------------------------||
   Good

E||--------------------------------------||
B||----------12-12-12-----------15-15-15-||
G||-13-13-13-----------14-14-14----------||
D||--------------------------------------||
A||--------------------------------------||
E||--------------------------------------||
   Stoppin and stayin,        I would if I

E||--------------------------------------||
B||----------12-12-12-----------14-14-14-||
G||-13-13-13-----------14-14-14----------||
D||--------------------------------------||
A||--------------------------------------||
E||--------------------------------------||
   Could


Bridge (2:50)

E||-0--0--0--0--0--0--0---0-0-0--0--0--0--0--0--||
B||-0--0--0--0--0--0--0---0-0-0--0--0--0--0--0--||
G||(6)(6)(6)(6)(6)(6)(6)--7-7-7--0--0--0--0--0--||
D||-7--7--7--7--7--7--7---7-7-7--11-11-11-11-11-||
A||-7--7--7--7--7--7--7---9-9-9--11-11-11-11-11-||
E||-5--5--5--5--5--5--5----------9--9--9—-9—-9--||
  Ain’t gonna run,        just live till you die wanna

E||-0--0--0--0--0--0--0---0-0-0--0--0--0--0--0--||
B||-0--0--0--0--0--0--0---0-0-0--0--0--0--0--0--||
G||(6)(6)(6)(6)(6)(6)(6)--7-7-7--0--0--0--0--0--||
D||-7--7--7--7--7--7--7---7-7-7--11-11-11-11-11-||
A||-7--7--7--7--7--7--7---9-9-9--11-11-11-11-11-||
E||-5--5--5--5--5--5--5----------9--9--9—-9—-9--||
   Drown                With nowhere to fall into the

E||-0--0--0--0--0--0--0---0-0-0--0--0--0--0--0--||
B||-0--0--0--0--0--0--0---0-0-0--0--0--0--0--0--||
G||(6)(6)(6)(6)(6)(6)(6)--7-7-7--0--0--0--0--0--||
D||-7--7--7--7--7--7--7---7-7-7--11-11-11-11-11-||
A||-7--7--7--7--7--7--7---9-9-9--11-11-11-11-11-||
E||-5--5--5--5--5--5--5----------9--9--9—-9—-9--||
   Arms of someone       There’s nothing to save and I

E||-0--0--0--0--0--0--0---0-0-0--0--0--0--0--0--||
B||-0--0--0--0--0--0--0---0-0-0--0--0--0--0--0--||
G||(6)(6)(6)(6)(6)(6)(6)--7-7-7--0--0--0--0--0--||
D||-7--7--7--7--7--7--7---7-7-7--11-11-11-11-11-||
A||-7--7--7--7--7--7--7---9-9-9--11-11-11-11-11-||
E||-5--5--5--5--5--5--5----------9--9--9—-9—-9--||
   Know                 You live till you die


Chorus (3:13)

E||--------------------------------------||
B||--------------------------------------||
G||------9---13-9------------------------||
D||-9h11----------11p9-11-9h11-----------||
A||--------------------------------------||
E||--------------------------------------||

E||-0-0-0---0--0--0--0--0----------------||
B||-0-0-0---0--0--0--0--0----------------||
G||-9-9-9---0--0--0--0--0----------------||
D||-9-9-9---11-11-11-11-11---------------||
A||-7-7-7---11-11-11-11-11---------------||
E||-x-x-x---9--9--9--9--9----------------||
   Live till you die I 

E||--------------------------------------||
B||--------------------------------------||
G||------9---13-9------------------------||
D||-9h11----------11p9-11-9h11-----------||
A||--------------------------------------||
E||--------------------------------------||
   Know

E||-0-0-0---0--0--0--0--0----------------||
B||-0-0-0---0--0--0--0--0----------------||
G||-9-9-9---0--0--0--0--0----------------||
D||-9-9-9---11-11-11-11-11---------------||
A||-7-7-7---11-11-11-11-11---------------||
E||-x-x-x---9--9--9--9--9----------------||
   Live till you die I

E||--------------------------------------||
B||---------------12---------------------||
G||------9---13-9----13-14p13------------||
D||-9h11---------------------------------||
A||--------------------------------------||
E||--------------------------------------||
   Know

E||-0-0-0---0--0--0--0--0----------------||
B||-0-0-0---0--0--0--0--0----------------||
G||-9-9-9---0--0--0--0--0----------------||
D||-9-9-9---11-11-11-11-11---------------||
A||-7-7-7---11-11-11-11-11---------------||
E||-x-x-x---9--9--9--9--9----------------||
   Live till you die I

E||--------------------------------------||
B||--------------------------------------||
G||------9---13-9------------------------||
D||-9h11----------11p9-11-9h11-----------||
A||--------------------------------------||
E||--------------------------------------||
   Know

E||-0-0-0---0--0--0--0--0----------------||
B||-0-0-0---0--0--0--0--0----------------||
G||-9-9-9---0--0--0--0--0----------------||
D||-9-9-9---11-11-11-11-11---------------||
A||-7-7-7---11-11-11-11-11---------------||
E||-x-x-x---9--9--9--9--9----------------||
   Live till you die

            
            
Suggest correction
Creating personal tab
Creating personal tab
You can edit any tab online and save it as your Personal.

You can edit, replace or remove any tab part or add personal notes – all changes will be seen only by you.

Personal tabs can be accessed anytime from any device, even offline.
Learn more »
comments
print report bad tab
5 comments total. Showing first comments.
0 reply
White Pony 10 Oct 16, 2006 11:01 AM

OK tab

0 reply
ufonacious 30 Dec 03, 2006 08:01 PM

--------------------
------------9---11--
--9--10-----9---11--
--9--11---------11--
--------------------
--------------------

maybe?

0 reply
kanturi 82 Dec 14, 2006 09:35 AM

ufonacious ad is better than the original in this tab

guest
You may want to rate the tab now too:
select rating
Wanna post a correction for this tab? Suggest correction