Oops, an error
Loading. Please wait.

In The Fade Acoustic tab

version 5
version 5

Interactive

31,186 views 117 this week
5 commentsread comments
1 2 3 4 5
x 10
add to favorites
×
Save as Personal and add changes to this tab that will be seen only by you. Learn more ›
×
You can save this tab as Personal to edit and correct it or add notes. All changes will be seen only by you. Learn more »
launch autoscroll
font size
0
reset
how to read this tab
guitar tuner
edit
Autoscroll
slow
fast
+/-
esc
set tempo
stop
Author
-------------------------------------------------------------------------------
                In the Fade (acoustic)- Queens of the Stone Age
-------------------------------------------------------------------------------
Tabbed by:krumpeld
Email:krumpeld@gmail.com

This is the acoustic performance done by Josh Homme and Troy VanLeeuwan in Boston. The 
can be found here
http://thephoenix.com/onthedownload/PermaLink.aspx?guid=79a96558-197f-4761-8779-0a6ad05e8f9f

first tab, so just let me know if i screwed up real badly. other than that,
i most likely missed a few accents here and there or a few extra notes thrown in.
other than that it should be note for note.

Tuning: standard

guitar I (Homme)
guitar II (VanLeeuwan)

[Intro]

     for this, he just taps his fingertips against the strings
Gtr.I v         v
e|----x---------x-9---------------------------------------------------------|
B|--9-x-12---10-x-----------vocals come in on 2nd time----------------------|
G|----x---------x-------x6--------------------------------------------------|
D|----x---------x-----------------------------------------------------------|
A|--7-x------0--x-9---------------------------------------------------------|
E|----x-9-------x-----------------------------------------------------------|

[Verse]

  Gtr. I
e|-------x-------------------------x----9----------------------------------|
B|--9----x-----12--------------10--x---------------------------------------|
G|-------x-------------------------x---------------------------------------|x4
D|-------x-------------------------x---------------------------------------|
A|--7----x---------------------0---x----9----------------------------------|
E|-------x-----9-------------------x---------------------------------------|
 |Gtr. II                            ( )=after 1st time
e|-------------------------------------------------------------------------|
B|-------------------------------------------------------------------------|
G|-------------------------------------------------------------------------|x4
D|--9(9)9----------------------999-----------------------------------------|
A|--7(7)7----------------------777-----------------------------------------|
E|-------7-9-7-9-xxx-9-0-xx-------7-9-7-9-x-x-9-0-xx-----------------------|

chorus Pt. 1

Gtr. I&II
e|---------------------------------------------------------------------------|
B|---------------------------------------------------------------------------|
G|9--9--9--9--9--9--9--9--9--9--9--9--9--9--9--9---------9-9-x-x-------------|
D|11-11-11-11-11-11-11-11-11-11-11-11-11-11-11-11--9-11--9-9-x-x-11--11-11-11|
A|12-12-12-12-12-12-12-12-12-12-12-12-12-12-12-12--------7-7-x-x-11--11-11-11|
E|---------------------------------------------------------------9---9--9--9-|

e|------------------------------------------------------------------------------|
B|------------------------------------------------------------------------------|
G|------------9--9--9--9--9--9--9---------------------9-9-xxx-------------------|
D|11-11-11-11-11-11-11-11-11-11-11-9-11-9-11--9-99h11-9-9-xxx-11--11-11-11-11-11|
A|11-11-11-11-12-12-12-12-12-12-12--------------------7-7-xxx-11--11-11-11-11-11|
E|9--9--9--9--------------------------------------------------9---9--9--9--9--9-|

e|-----------------------------------------------------------------------------|
B|-----------------------------------------------------------------------------|
G|9--9--9--9--9--9--9--------------------9-9-xxx---------------------9--9--9---|
D|11-11-11-11-11-11-11-9-11-9-11-9-99h11-9-9-xxx-11--11-11-11-11-11--11-11-11--|
A|12-12-12-12-12-12-12-------------------7-7-xxx-11--11-11-11-11-11--12-12-12--|
E|-----------------------------------------------9---9--9--9--9--9-------------|

e|------------------------------------------------------------------------------|
B|9--9--9--9--------------------9-9-xxx-----------------------------------------|
G|11-11-11-11-9-11-9-11-9-99h11-9-9-xxx-11--11-11-11-11-11----------------------|
D|12-12-12-12-------------------7-7-xxx-11--11-11-11-11-11----------------------|
A|--------------------------------------9---9--9--9--9--9-----------------------|
E|------------------------------------------------------------------------------|

Chorus Pt. 2

Gtr. I + |
Gtr. II  v  Gtr. I (Gtr. II repeat chorus)
e|--------|---------------------------------------------------------------------|
B|--------|-9---------------------------------------------9---------------------|
G|------9-|---9-----------------9-9-xx-----------------9----9-------------------|
D|-9-11---|------11p9-11--9h11--9-9-xx-11--11-11--9-11---------11p9-11--9h11----|
A|--------|---------------------7-7-xx------------------------------------------|
E|--------|---------------------------------------------------------------------|
                                        *half bend
e|------------------------------------------------------------------------------|
B|---------------------------9----12-9-9*---------------------------------9-----|
G|-9-9-xx-----------------9----9----------------9-9-xx-----------------9----9---|
D|-9-9-xx-11--11-11--9-11------------------9h11-9-9-xx-11--11-11--9-11----------|
A|-7-7-xx-11--11-11-----------------------------7-7-xx-11--11-11----------------|
E|--------9---9--9-------------------------------------9---9--9-----------------|

e|--------------------------------------------------------------------------|
B|--------------------------------------------------------------------------|
G|---------------9-9-xx-----------------------------------------------------|
D|-11p9-11--9h11-9-9-xx-11--------back to verse-----------------------------|
A|---------------7-7-xx-11--------------------------------------------------|
E|----------------------9---------------------------------------------------|

[Outro]
 i can't get the outro done well enough from the live acoustic version but this is how 
is recorded on Rated R
(i'm pretty sure, at least)
e|-----------------------------------------------------------------------------|
B|-----------------------------------------------------------------------------|
G|-----------------------------------------------------------------------------|
D|--------------------------------repeat until finish--------------------------|
A|--11-11-11-11-11-11-11-11-11-11----------------------------------------------|
E|--9--9--9--9--9--9--9--7--7--7-----------------------------------------------|


Order of Song
          _
[Intro]
Verse       |-x2
Chorus 1&2_/
[Outro]

lyrics:
Cracks in the ceiling
Crooked pictures in the hall
Countin and breathin
I'm leaving here tomorrow
They don't know
I never do you any good
Laughin is easy
I would if I could

Ain't gonna worry
Just live till you die, I wanna drown
With nowhere to fall
Into the arms of someone
There's nothing to save and I know
You live till you die

Live till you die, I know

Loosing a feelin that
I couldn't give away
Countin and breathin
Disappearin in the fade
They don't know
I never do you any good
Stoppin and stayin
I would if I could

Ain't gonna worry
Just live till you die, I wanna drown
With nowhere to fall
Into the arms of someone
There's nothing to save I know
You live till you die

Live till you die, I know


************************************

| x    Dead note
| (n)  Ghost note
| h    Hammer-on
| p    Pull-off

************************************

            
            
Suggest correction
Creating personal tab
Creating personal tab
You can edit any tab online and save it as your Personal.

You can edit, replace or remove any tab part or add personal notes – all changes will be seen only by you.

Personal tabs can be accessed anytime from any device, even offline.
Learn more »
comments
print report bad tab
5 comments total. Showing first comments.
0 reply
yogui 52 Jun 19, 2008 05:06 PM

Great job man! thanks, this song is amazing.

0 reply
93steven 31 Mar 26, 2010 05:23 PM

everything is great and just as an alternative for the chorus
you can play A open instead of on 12 so its easier to carry on with the following part.

0 reply
Skipper Mikkel 197 Sep 21, 2010 08:17 AM

good job. appreciate it! great song in a great version. tnx

guest
You may want to rate the tab now too:
select rating
Wanna post a correction for this tab? Suggest correction