Oops, an error
Loading. Please wait.

In The Fade Tab

version 5
version 5

Whole song

Interactive

30,901 views 36 this week
2 commentsread comments
1 2 3 4 5
x 9
add to favorites
launch autoscroll
font size
0
reset
how to read this tab
guitar tuner
Autoscroll
slow
fast
+/-
esc
set tempo
stop
Help us to improve Ultimate-Guitar.com Take our survey!
×
Artist: Queens Of The Stone Age
Song:   In The Fade
Album:  Rated ˝R˝ (2000)

Tuning: ((I tabbed this song in standard tuning, ´cuz I don't believe it should
        be in QOTSA´s tuning: In chorus, you can here that Nick is strumming
        opened A string and 9h11 on D string, which makes A-major. You can hear
        that especialy in the outro. If you know FOR SURE the real tuning, let
        me know (go to ˝Correct this tab˝)).

Tabber: Goran Kalamiza (wes7boiler@hotmail.com)

[Intro/Verse] x6
(0:07)
e|-----------------------------------------------------------------|
B|-----------------------------------------------------------------|
G|-13~~~~~~~~~~~~~~~~~~~~~-13~~~~~~~~~~~~~~~~~~~~~~~~~~~~~~~~~~~~~-|
D|-14~~~~~~~~~~~~~~~~~~~~~-15~~~~~~~~~~~~~~~~~~~~~~~~~~~~~~~~~~~~~-|
A|-----------------------------------------------------------------|
E|-----------------------------------------------------------------|
                                                    
e|-----------------------------------------------------------------|
B|-----------------------------------------------------------------|
G|-14~~~~~~~~~~~~~~~~~~~~~-15~~~~~~~~~~~~~~~~~~~~~~~~~~~~~~~~~~~~~-|
D|-14~~~~~~~~~~~~~~~~~~~~~-16~~~~~~~~~~~~~~~~~~~~~~~~~~~~~~~~~~~~~-|
A|-----------------------------------------------------------------|
E|-----------------------------------------------------------------|
                                                    
[Verse cont.]
(delay) x4
(0:42)
e|-----------------------------------------------------------------|
B|-----------------------------------------------------------------|
G|-13~~~~-(13)~~~-(13)~~~~-16~~~~-(16)~~~-(16)~~~-(16)~~~-(16)~~~~-|
D|-14~~~~-(14)~~~-(14)~~~~-15~~~~-(15)~~~-(15)~~~-(15)~~~-(15)~~~~-|
A|-----------------------------------------------------------------|
E|-----------------------------------------------------------------|
                                                    
e|------------------------------------------------------------------|
B|------------------------------------------------------------------|
G|--14~~~~-(14)~~~-(14)~~~~-18~~~~-(18)~~~-(18)~~~-(18)~~~-(18)~~~~-|
D|--14~~~~-(14)~~~-(14)~~~~-16~~~~-(16)~~~-(16)~~~-(16)~~~-(16)~~~~-|
A|------------------------------------------------------------------|
E|------------------------------------------------------------------|
                                                
[Chorus]
(1:05)
e|------------------------------------------------------------------|
B|------------------------------------------------------------------|
G|------------------------------------------------------------------|
D|-/11--11--11--11--11--11--11--11--11--11--11--11--11--11--11--11--|
A|--0---0---0---0---0---0---0---0---0---0---0---0---0---0---0---0---|
E|------------------------------------------------------------------|
                                          
e|------------------------------------------------------------------|
B|------------------------------------------------------------------|
G|------------------------------------------------------------------|
D|--14------14------14--14--11----------11--11--11--11--11\\\-------|
A|--14------14------14--14--11----------11--11--11--11--11----------|
E|--12------12------12--12--9-----------9---9---9---9---9-----------|
                                               
e|------------------------------------------------------------------|
B|------------------------------------------------------------------|
G|------------------------------------------------------------------|
D|-/11--11--11--11--11--11--11--11--11--11--11--11--11--11--9h11----|
A|--0---0---0---0---0---0---0---0---0---0---0---0---0---0-----------|
E|------------------------------------------------------------------|
  
e|------------------------------------------------------------------|
B|------------------------------------------------------------------|
G|------------------------------------------------------------------|
D|--14------14------14--14--11----------11--11--11--11--11\\\-------|
A|--14------14------14--14--11----------11--11--11--11--11----------|
E|--12------12------12--12--9-----------9---9---9---9---9-----------|
  
e|------------------------------------------------------------------|
B|------------------------------------------------------------------|
G|------------------------------------------------------------------|
D|-/11--11--11--11--11--11--11--9---11--9---11------9-------9---11--|
A|--0---0---0---0---0---0---0---0---0---0---0-------0-------0---0---|
E|------------------------------------------------------------------|
   
e|------------------------------------------------------------------|
B|------------------------------------------------------------------|
G|------------------------------------------------------------------|
D|--14------14------14--14--11----------11--11--11--11--11\\\-------|
A|--14------14------14--14--11----------11--11--11--11--11----------|
E|--12------12------12--12--9-----------9---9---9---9---9-----------|
  
e|------------------------------------------------------------------|
B|------------------------------------------------------------------|
G|------------------------------------------------------------------|
D|-/11--11--11--11--11--11--11--11--11--11--11--11--11--11--9h11----|
A|--0---0---0---0---0---0---0---0---0---0---0---0---0---0---0-------|
E|------------------------------------------------------------------|
  
e|------------------------------------------------------------------|
B|------------------------------------------------------------------|
G|----------------------------------------------------------9~~~~~~-|
D|--14------14------14--14--11----------11--11--11--9h11------------|
A|--14------14------14--14--11----------11--11--11------------------|
E|--12------12------12--12--9-----------9---9---9-------------------|
   
[Chorus cont.]
(1:29)
e|------------------------------------------------------------------|
B|----------9-------------------------------------------------------|
G|-(9)~~~~~---------9v~~--------------------------------------------|
D|----------------------------------11p9---11v~~------------9h11----|
A|------------------------------------------------------------------|
E|------------------------------------------------------------------|
  
e|------------------------------------------------------------------|
B|------------------------------------------------------------------|
G|----------------------------------------------------------9~~~~~~-|
D|--14------14------14--14--11----------11--11--11--9h11------------|
A|--14------14------14--14--11----------11--11--11------------------|
E|--12------12------12--12--9-----------9---9---9-------------------|
  
e|------------------------------------------------------------------|
B|----------9-------------------------------------------------------|
G|-(9)~~~~~---------9v~~--------------------------------------------|
D|----------------------------------11p9---11v~~------------9h11----|
A|------------------------------------------------------------------|
E|------------------------------------------------------------------|
   
e|------------------------------------------------------------------|
B|------------------------------------------------------------------|
G|----------------------------------------------------------9~~~~~~-|
D|--14------14------14--14--11----------11--11--11--9h11------------|
A|--14------14------14--14--11----------11--11--11------------------|
E|--12------12------12--12--9-----------9---9---9-------------------|
 
e|------------------------------------------------------------------|
B|----------9-----------------------12------------------------------|
G|-(9)~~~~~---------9v~~--------------------13v~~-------13b14r13v~~-|
D|------------------------------------------------------------------|
A|------------------------------------------------------------------|
E|------------------------------------------------------------------|
 
e|------------------------------------------------------------------|
B|------------------------------------------------------------------|
G|----------------------------------------------------------9~~~~~~-|
D|--14------14------14--14--11----------11--11--11--9h11------------|
A|--14------14------14--14--11----------11--11--11------------------|
E|--12------12------12--12--9-----------9---9---9-------------------|
 
e|------------------------------------------------------------------|
B|----------9-------------------------------------------------------|
G|-(9)~~~~~---------9v~~--------------------------------------------|
D|----------------------------------11p9---11v~~------------9h11----|
A|------------------------------------------------------------------|
E|------------------------------------------------------------------|

e|------------------------------------------------------------------|
B|------------------------------------------------------------------|
G|------------------------------------------------------------------|
D|--14------14------14--14--11----------11--11--11--11--11--11\\\---|
A|--14------14------14--14--11----------11--11--11--11--11--11------|
E|--12------12------12--12--9-----------9---9---9---9---9---9-------|
 
[Verse - delay] x10
(1:52)
e|------------------------------------------------------------------|
B|------------------------------------------------------------------|
G|--13~~~~-(13)~~~-(13)~~~~-16~~~~-(16)~~~-(16)~~~-(16)~~~-(16)~~~~-|
D|--14~~~~-(14)~~~-(14)~~~~-15~~~~-(15)~~~-(15)~~~-(15)~~~-(15)~~~~-|
A|------------------------------------------------------------------|
E|------------------------------------------------------------------|
 
e|------------------------------------------------------------------|
B|------------------------------------------------------------------|
G|--14~~~~-(14)~~~-(14)~~~~-18~~~~-(18)~~~-(18)~~~-(18)~~~-(18)~~~~-|
D|--14~~~~-(14)~~~-(14)~~~~-16~~~~-(16)~~~-(16)~~~-(16)~~~-(16)~~~~-|
A|------------------------------------------------------------------|
E|------------------------------------------------------------------|
 
[Chorus]
(2:50) 
e|------------------------------------------------------------------|
B|------------------------------------------------------------------|
G|------------------------------------------------------------------|
D|-/11--11--11--11--11--11--11--11--11--11--11--11--11--11--11--11--|
A|--0---0---0---0---0---0---0---0---0---0---0---0---0---0---0---0---|
E|------------------------------------------------------------------|

e|------------------------------------------------------------------|
B|------------------------------------------------------------------|
G|------------------------------------------------------------------|
D|--14------14------14--14--11----------11--11--11--11--11\\\-------|
A|--14------14------14--14--11----------11--11--11--11--11----------|
E|--12------12------12--12--9-----------9---9---9---9---9-----------|

e|------------------------------------------------------------------|
B|------------------------------------------------------------------|
G|------------------------------------------------------------------|
D|-/11--11--11--11--11--11--11--11--11--11--11--11--11--11--9-h-11--|
A|--0---0---0---0---0---0---0---0---0---0---0---0---0---0-----------|
E|------------------------------------------------------------------|

e|------------------------------------------------------------------|
B|------------------------------------------------------------------|
G|------------------------------------------------------------------|
D|--14------14------14--14--11----------11--11--11--11--11\\\-------|
A|--14------14------14--14--11----------11--11--11--11--11----------|
E|--12------12------12--12--9-----------9---9---9---9---9-----------|
 
e|------------------------------------------------------------------|
B|------------------------------------------------------------------|
G|------------------------------------------------------------------|
D|-/11--11--11--11--11--11--11--9---11--9---11------9-------9---11--|
A|--0---0---0---0---0---0---0---0---0---0---0-------0-------0---0---|
E|------------------------------------------------------------------|
 
e|------------------------------------------------------------------|
B|------------------------------------------------------------------|
G|------------------------------------------------------------------|
D|--14------14------14--14--11----------11--11--11--11--11\\\-------|
A|--14------14------14--14--11----------11--11--11--11--11----------|
E|--12------12------12--12--9-----------9---9---9---9---9-----------|
 
e|------------------------------------------------------------------|
B|------------------------------------------------------------------|
G|------------------------------------------------------------------|
D|-/11--11--11--11--11--11--11--11--11--11--11--11--11--11--9h11----|
A|--0---0---0---0---0---0---0---0---0---0---0---0---0---0---0-------|
E|------------------------------------------------------------------|

e|------------------------------------------------------------------|
B|------------------------------------------------------------------|
G|----------------------------------------------------------9~~~~~~-|
D|--14------14------14--14--11----------11--11--11--9h11------------|
A|--14------14------14--14--11----------11--11--11------------------|
E|--12------12------12--12--9-----------9---9---9-------------------|

[Chorus cont.]
(3:13)
e|------------------------------------------------------------------|
B|----------9-------------------------------------------------------|
G|-(9)~~~~~---------9v~~--------------------------------------------|
D|----------------------------------11p9---11v~~------------9h11----|
A|------------------------------------------------------------------|
E|------------------------------------------------------------------|

e|------------------------------------------------------------------|
B|------------------------------------------------------------------|
G|----------------------------------------------------------9~~~~~~-|
D|--14------14------14--14--11----------11--11--11--9h11------------|
A|--14------14------14--14--11----------11--11--11------------------|
E|--12------12------12--12--9-----------9---9---9-------------------|
  
e|------------------------------------------------------------------|
B|----------9-------------------------------------------------------|
G|-(9)~~~~~---------9v~~--------------------------------------------|
D|----------------------------------11p9---11v~~------------9h11----|
A|------------------------------------------------------------------|
E|------------------------------------------------------------------|
 
e|------------------------------------------------------------------|
B|------------------------------------------------------------------|
G|----------------------------------------------------------9~~~~~~-|
D|--14------14------14--14--11----------11--11--11--9h11------------|
A|--14------14------14--14--11----------11--11--11------------------|
E|--12------12------12--12--9-----------9---9---9-------------------|

e|------------------------------------------------------------------|
B|----------9-----------------------12------------------------------|
G|-(9)~~~~~---------9v~~--------------------13v~~-------13b14r13v~~-|
D|------------------------------------------------------------------|
A|------------------------------------------------------------------|
E|------------------------------------------------------------------|

e|------------------------------------------------------------------|
B|------------------------------------------------------------------|
G|----------------------------------------------------------9~~~~~~-|
D|--14------14------14--14--11----------11--11--11--9h11------------|
A|--14------14------14--14--11----------11--11--11------------------|
E|--12------12------12--12--9-----------9---9---9-------------------|
 
e|------------------------------------------------------------------|
B|----------9-------------------------------------------------------|
G|-(9)~~~~~---------9v~~--------------------------------------------|
D|----------------------------------11p9---11v~~------------9h11----|
A|------------------------------------------------------------------|
E|------------------------------------------------------------------|

e|------------------------------------------------------------------|
B|------------------------------------------------------------------|
G|------------------------------------------------------------------|
D|--14------14------14--14--11----------11--11--11--11--11--11\\\---|
A|--14------14------14--14--11----------11--11--11--11--11--11------|
E|--12------12------12--12--9-----------9---9---9---9---9---9-------|
 
[Outro]
(repeat until it fades out)
(3:36)
e|------------------------------------------------------------------|
B|------------------------------------------------------------------|
G|------------------------------------------------------------------|
D|--11--11--11--11--11--11--11--11--11--11--11--11--11--11--11--9---|
A|--0---0---0---0---0---0---0---0---0---0---0---0---0---0---0---0---|
E|------------------------------------------------------------------|


************************************

| ~  Vibrato
| /  Slide up
| \  Slide down
| h  Hammer-on
| p  Pull-off
| r  Release
| b  Bend

************************************
Suggest correction
comments
print report bad tab
2 comments total.
-2 reply
liamrider 94 Aug 21, 2007 10:52 PM

the verse is way off

+2 reply
LB3119 43 Dec 10, 2010 04:32 PM

nice tab man well done

guest
You may want to rate the tab now too:
select rating
Wanna post a correction for this tab? Suggest correction