Oops, an error
Loading. Please wait.

Into The Hollow tab

version 2
version 2

Whole song

Interactive

7,139 views 3 this week
3 commentsread comments
1 2 3 4 5
x 4
add to favorites
×
Save as Personal and add changes to this tab that will be seen only by you. Learn more ›
×
You can save this tab as Personal to edit and correct it or add notes. All changes will be seen only by you. Learn more »
launch autoscroll
font size
0
reset
how to read this tab
guitar tuner
edit
Autoscroll
slow
fast
+/-
esc
set tempo
stop
Difficulty
This is just the main riff and rythm

  Q   E  E  +E   E  +Q      Q   E  E  +E   E Q
|-5--12-17-(17)----------|----------------------|
|---------------17-(17)--|----------------------|
|------------------------|--------21-(21)-------|
|------------------------|-----21---------21----|
|------------------------|-19-------------------|
|------------------------|-------------------3--|


  Q  E. S S S S S E E   Q  E. S S S S S E E
|---------------------|----------------------|
|---------------------|----------------------|
|-------------------0-|-------------------0--|
|-2--2--0-2-0-2-------|-2--2--0-2-0-2--------|
|---------------------|----------------------|
|---------------------|----------------------|


  Q  E. S S S S S E E   Q  E. S S S S S E E
|---------------------|---------------------|
|---------------------|---------------------|
|-------------------0-|---------------------|
|-2--2--0-2-0-2-------|-2--2--0-2-0-2-----0-|
|---------------------|---------------------|
|---------------------|---------------------|


  Q  E. S E E E E   +Q   E. S E E E E
|-----------------|-------------------|
|-----------------|-------------------|
|-0--0--0-0-0-----|---------------0---|
|-------------2-0-|-(0)--0--0-0-0---2-|
|-----------------|-------------------|
|-----------------|-------------------|


  +Q   E. S S S S S E E   Q  E. S S S S S E E
|-----------------------|---------------------|
|-----------------------|---------------------|
|---------------------0-|---------------------|
|-(2)--2--0-2-0-2-------|-2--2--0-2-0-2-----0-|
|-----------------------|---------------------|
|-----------------------|---------------------|


  Q  E. S E E E E   +Q   E. S E E E E
|-----------------|-------------------|
|-----------------|-------------------|
|-0--0--0-0-0-----|---------------0---|
|-------------2-0-|-(0)--0--0-0-0---2-|
|-----------------|-------------------|
|-----------------|-------------------|


  +Q   E. S S S S S E E   Q  E. S S S S S E E
|-----------------------|---------------------|
|-----------------------|---------------------|
|---------------------0-|---------------------|
|-(2)--2--0-2-0-2-------|-2--2--0-2-0-2-----0-|
|-----------------------|---------------------|
|-----------------------|---------------------|

  E E  E  E E  E E E   E E  E  E E  E E E
|--------------------|--------------------|
|--------------------|--------------------|
|--------------------|--------------------|
|--------------------|--------------------|
|--------------------|-0-0--0--0-0--0-0-0-|
|-3-3--3--3-3--3-3-3-|--------------------|
|



  E E  E  E E  E E E   E E E E E  E E E
|--------------------|------------------|
|--------------------|------------------|
|--------------------|------------------|
|---------4-4--4-4---|---4-4---4----4---|
|-2-2--2-----------2-|-2-----2----2---2-|
|--------------------|------------------|


  E E  E  E E  E E E   E E  E  E E  E E E
|--------------------|--------------------|
|--------------------|--------------------|
|--------------------|--------------------|
|--------------------|--------------------|
|----------------5---|-0-0--0--0-0--0-0-0-|
|-3-3--3--3-3--3---3-|--------------------|


  E E  E  E E  E E E   E E E E E  E E E
|--------------------|------------------|
|--------------------|------------------|
|------------------4-|-4----------4-2---|
|---------4-4--4-4---|---4-4---4------4-|
|-2-2--2-------------|-------2----------|
|--------------------|------------------|



  E E  E   E   E  E  E  E     E  E E E E E E E
|-------------------------|--------------------|
|-------------------------|--------------------|
|-------------------------|--------------------|
|-------------------------|--------2---2-------|
|------5-------5----------|---0--0---0---0-0---|
|-3-3------3------3--3--3-|------------------2-|


    E   E  E  E   E  E  E  E     E  E E E   E  E E  E
|----------------------------|------------------------|
|----------------------------|------------------------|
|-----------------4--2-------|------4-2-----4--2------|
|----------4------------4--2-|-------------------4--2-|
|---2---2-----2--------------|---2------2-------------|
|----------------------------|------------------------|

   E  E   E   E   E  E  E  E     E  E E E E E E E
|----------------------------|--------------------|
|----------------------------|--------------------|
|----------------------------|--------------------|
|----------------------------|--------------------|
|---------5-------5-----5--7-|--------7---7---7-7-|
|--3--3-------3------3-------|---5--5---5---5-----|


    E   E  E  E   E  E  E  E     E  E  E  E   E  E  E  E
|----------------------------|---------------------------|
|----------------------------|---------------------------|
|----------------------------|---------------------------|
|----------------------------|----------------9--7--5--4-|
|----------9------9-----9----|---------------------------|
|---7---7-----7------7-----7-|---7--7--7--7--------------|


   Q  E. S S S S S E E     Q   E. S S S S S E E
|----------------------|------------------------|
|----------------------|------------------------|
|--------------------0-|----------------------0-|
|--2--2--0-2-0-2-------|---2---2--0-2-0-2-------|
|----------------------|------------------------|
|----------------------|------------------------|



  Q  E. S S S S S E E   Q  E. S S S S S E E    Q  E. S S S S S E E
|---------------------|---------------------|----------------------|
|---------------------|---------------------|----------------------|
|-------------------0-|-------------------0-|--------------------0-|
|-2--2--0-2-0-2-------|-2--2--0-2-0-2-------|--2--2--0-2-0-2-------|
|---------------------|---------------------|----------------------|
|---------------------|---------------------|----------------------|


    Q   E. S   S  S S S E  E
|----------------------------|
|----------------------------|
|--------------------------0-|
|---2---2--0---2--0-2--------|
|----------------------------|
|----------------------------|



    Q   E. S S S  S S  Q      Q  E. S  S E S +S  E S
|--------------------------|-------------------------|
|--------------------------|-------------------------|
|--------------------------|-------------------------|
|---2---2--0-2-0--2--------|--2--2--0--2-0-----------|
|--------------------------|---------------2-(2)-0-0-|
|--------------------------|-------------------------|

  Q  E. S E E E E   +Q   E. S E E E E
|-----------------|-------------------|
|-----------------|-------------------|
|-0--0--0-0-0-----|---------------0---|
|-------------2-0-|-(0)--0--0-0-0---2-|
|-----------------|-------------------|
|-----------------|-------------------|


  +Q   E. S S S S S E E   Q  E. S S S S S E E
|-----------------------|---------------------|
|-----------------------|---------------------|
|---------------------0-|---------------------|
|-(2)--2--0-2-0-2-------|-2--2--0-2-0-2-----0-|
|-----------------------|---------------------|
|-----------------------|---------------------|


  Q  E. S E E E E   +Q   E. S E E E E
|-----------------|-------------------|
|-----------------|-------------------|
|-0--0--0-0-0-----|---------------0---|
|-------------2-0-|-(0)--0--0-0-0---2-|
|-----------------|-------------------|
|-----------------|-------------------|


  +Q   E. S S S S S E E   Q  E. S S S S S E  E
|-----------------------|----------------------|
|-----------------------|----------------------|
|---------------------0-|----------------------|
|-(2)--2--0-2-0-2-------|-2--2--0-2-0-2------0-|
|-----------------------|----------------------|
|-----------------------|----------------------|
|

   E  E   E   E  E  E E  E    E  E   E   E  E  E E  E
|--------------------------|--------------------------|
|--------------------------|--------------------------|
|--------------------------|--------------------------|
|--------------------------|--------------------------|
|--------------------------|--0--0---0---0--0--0-0--0-|
|--3--3---3---3--3--3-3--3-|--------------------------|


   E  E   E   E  E  E E  E    E  E  E  E  E  E E  E
|--------------------------|------------------------|
|--------------------------|------------------------|
|------------------------2-|------------------------|
|-------------4--4--4-4----|--4--2--2--------4----2-|
|--2--2---2----------------|-----------2--2----2----|
|--------------------------|------------------------|



   E  E   E   E  E  E E  E    E  E   E   E  E  E E  E
|--------------------------|--------------------------|
|--------------------------|--------------------------|
|--------------------------|--------------------------|
|--------------------------|---------------------2----|
|------------------------0-|--0--0---0---0--0--0----4-|
|--3--3---3---3--3--3-1----|--------------------------|


   E  E   E   E  E  E E  E    E  E  E  E  E  E E  E
|--------------------------|------------------------|
|--------------------------|------------------------|
|--------------------------|------------------------|
|-------------4----------4-|--4--2--2--4--2--0------|
|--2--2---2------2--2-2----|-------------------2--0-|
|--------------------------|------------------------|

   E  E   E   E   E  E  E  E     E  E E E E E E E
|----------------------------|--------------------|
|----------------------------|--------------------|
|----------------------------|--------------------|
|----------------------------|--------2---2-------|
|---------5-------5----------|---0--0---0---0-0-0-|
|--3--3-------3------3--3--3-|--------------------|

    E   E  E  E   E  E  E  E     E  E E E   E  E E  E
|----------------------------|------------------------|
|----------------------------|------------------------|
|----------------------------|---4----------4---------|
|-----------------4-----4----|-----------------4------|
|---2---2--2--2------2-----2-|------2-2-2--------2--0-|
|----------------------------|------------------------|

   E  E   E   E   E  E  E  E     E  E E E E E E E
|-----------------------0----|--------------------|
|----------------------------|--------------------|
|----------------------------|------------------2-|
|----------------------------|--------2---2---4---|
|---------5-------5----------|---0--0---0---0-----|
|--3--3-------3------3-----3-|--------------------|


    E   E  E  E   E  E  E  E     E  E  E  E   E  E  E  E
|----------------------------|---------------------------|
|----------------------------|---------------------------|
|-----------------2----------|----------------4--2-------|
|----------4---------4-----4-|---------4------------4--2-|
|---2---2-----2---------2----|---2--2-----2--------------|
|----------------------------|---------------------------|


    E  E  E  E   E  E  E  E     E  E  E  E   E  E  E  E
|---------------------------|---------------------------|
|---------------------------|---------------------------|
|---------------------------|----------------2--0-------|
|------------0---4--2--0----|---------0--2---------2--0-|
|---------2---------------2-|---0--0--------------------|
|---3--3--------------------|---------------------------|


    E  E  E  E   E  E  E  E     E   E   S   S S  S  E     E  S S  S S
|---------------------------|------------------------------------------|
|---------------------------|------------------------------------------|
|----------------4--2-------|------------------------------------------|
|---------4------------4----|--------------------7---------------------|
|---2--2-----2------------6-|---------------9----------------5------0--|
|---------------------------|---7---7---7-----------5-----5----2-------|

    E  E  E  E   E  E  E  E     E  E  E  E   E  E  E  E
|---------------------------|---------------------------|
|---------------------------|---------------------------|
|---------------------------|----------------2--0-------|
|------------0---4--2--0----|------------2---------2--1-|
|---------2---------------2-|---0--0--4-----------------|
|---3--3--------------------|---------------------------|


    E  E  E  E   E  E  E  E     E   E   S   S S  S  E     E  S S S S
|---------------------------|-----------------------------------------|
|---------------------------|-----------------------------------------|
|---------------------------|--------------------2--------------------|
|---------4------4--2--0----|---------------4----------------0--------|
|---2--2-----2------------2-|---2---2---2-----------0-----0--------0--|
|---------------------------|----------------------------------2------|


  E E E E E E E E   E E E E E E E E   E E E E E E E E   E E E E E E E E
|-----------------|-----------------|-----------------|-----------------|
|-----------------|-----------------|-----------------|-----------------|
|-----------------|-----------------|-----------------|-----------------|
|-----------------|-----------------|-----------------|-----------------|
|-----------------|-0-0-0-0-0-0-0-0-|-2-2-2-2-2-2-2-2-|-2-2-2-2-2-2-2-2-|
|-3-3-3-3-3-3-3-3-|-----------------|-----------------|-----------------|


  E E E E E E E E   E E E E E E E E   E E E E E E E E   E E E E E E E  E
|-----------------|-----------------|-----------------|------------------|
|-----------------|-----------------|-----------------|------------------|
|-----------------|-----------------|-----------------|------------------|
|-----------------|-----------------|-4-4-4-----------|-4-4-4------------|
|-----------------|-0-0-0-0-0-0-0-0-|-------2-2-2-2-2-|-------2-0-2-2--2-|
|-3-3-3-3-3-3-3-3-|-----------------|-----------------|------------------|

   E  E  E  E   E  E E E   E E E E  E  E E E
|--------------------0---|-------------------|
|------------------------|-------------------|
|------------------------|-------------------|
|------------------------|---------------2-0-|
|----------------------0-|-0-0-0-0--0--0-----|
|--3--3--3--3---3--3-----|-------------------|


  E E E  E   E   E  E  E     E  E E E  E  E E  E
|------------------------|-----------------------|
|------------------------|-----------------------|
|------------------------|-----------------------|
|-------------------4----|-----------------------|
|-2-2-2--2---2---2-----2-|---2--2-2-2--0--0-0--0-|
|------------------------|-----------------------|

   E  E  E  E   E  E E E   E E E E  E  E E E
|------------------------|-------------------|
|------------------------|-------------------|
|------------------------|-------------------|
|----------------------0-|-----2----2----2-1-|
|--------5------5----2---|-0-0---0-----0-----|
|--3--3-----3------3-----|-------------------|

  E E E  E   E   E  E  E     E  E E E  E E E E
|------------------------|---------------------|
|------------------------|---------------------|
|------------------------|---------------------|
|-----0------4---2--0----|-------------4-2-0---|
|-2-2----2-------------2-|---2--2-2-2--------2-|
|------------------------|---------------------|

   Q  E. S S S S S E E     Q      E. S S S S S E E   Q  E. S S S S S E E
|----------------------|---------------------------|---------------------|
|----------------------|---------------------------|---------------------|
|--------------------0-|-------------------------0-|-------------------0-|
|--2--2--0-2-0-2-------|---2------2--0-2-0-2-------|-2--2--0-2-0-2-------|
|----------------------|---------------------------|---------------------|
|----------------------|---------------------------|---------------------|


  Q  E. S S S S S E E   Q  E. S S S S S Q
|---------------------|--------------------*|
|---------------------|--------------------*|
|-------------------0-|--------------------*|
|-2--2--0-2-0-2-------|-2--2--0-2-0-2------*|
|---------------------|--------------------*|
|---------------------|--------------------*|

            
            
Suggest correction
Creating personal tab
Creating personal tab
You can edit any tab online and save it as your Personal.

You can edit, replace or remove any tab part or add personal notes – all changes will be seen only by you.

Personal tabs can be accessed anytime from any device, even offline.
Learn more »
comments
print report bad tab
3 comments total.
0 reply
AnEvilWalrus 425 May 24, 2014 07:33 PM

didn't like this contribution

0 reply
ledzep426 6,200 Oct 30, 2015 09:50 PM

didn't like this contribution

0 reply
gitmasta69 10 Apr 25, 2016 06:30 PM

didn't like this contribution

guest
Wanna post a correction for this tab? Suggest correction