Oops, an error
Loading. Please wait.

Into The Hollow tab

version 5
version 5

Whole song

Interactive

58 views 1 this week
no commentswrite comment
1 2 3 4 5
3 more votes to show rating
add to favorites
×
Save as Personal and add changes to this tab that will be seen only by you. Learn more ›
×
You can save this tab as Personal to edit and correct it or add notes. All changes will be seen only by you. Learn more »
launch autoscroll
font size
0
reset
how to read this tab
guitar tuner
edit
Autoscroll
slow
fast
+/-
esc
set tempo
stop
About this tab version
Includes missing guitar, lap steel, and more accurate representation of the song. It also doesn't have any missing parts as far I can tell. Was this info helpful? Yes No
[Intro]
(Josh)                                        Harmonics (if you really want to)
e------------------------------               e---------(5)-------|
B------------------------------               B------(5)---(5)----|
G------------------------------               G---(5)---------(5)-|
D------------------------------               D-------------------|
A----------------------------10               A-------------------|
E--3/10h12-12-12-10h12p10h12---               E-------------------|

[Verse 1&2]
(Josh)
e----------------------------------------------------------------------------------------|
B----------------------------------------------------------------------------------------|
G----------------------------------------------------------------------------------------|
D----------------------------------------------------------------------------------------|
A----10-10-10-10-10-------------------10----------------------10-------------------------|
E-------------------12-10-10-10-10-10----12-12-12-10h12p10h12----12-12-12-10h12p10h12----|

[Pre-Chorus/chorus/Bridge]
(Josh)
e----------------------------------------------------------------------------|
B----------------------------------------------------------------------------|
G----------------------------------------------------------------------------|
D---9--9--9-12--9-12--9-12--11-11-11-14-11-14-11-14--13-13-13-16-13-16-13-16-|
A--10-10-10-10-10-10-10-10--12-12-12-12-12-12-12-12--14-14-14-14-14-14-14-14-|
E----------------------------------------------------------------------------|

[Pre-Chorus]
(Troy) 
*Lap-steel originally, but a slide guitar works too
e-------------------------------------------------------------------|
B----------10/12~~~-------------------10/12~~~----------------------|
G#--8/10\8----------(x3)--8/10\8/10\8-------------------------------|(repeat this twice)
E-------------------------------------------------------------------|
B-------------------------------------------------------------------|
E-------------------------------------------------------------------|

[Chorus]
(Troy)
e---5/7-14\10\9~~~-5/7-14\10-7/9\7~~~-|
B-------------------------------------|
G#------------------------------------|
E-------------------------------------|
B-------------------------------------|
E-------------------------------------|

[Post-Chorus]                            [Post-Chorus]
(Josh)                                   (Dean)
e------------------------------          e------------------------|
B------------------------------          B------------------------|
G------------------------------          G------------------------|
D------------------------------          D---9--------------------|
A----10----------------------10          A-----10-10-10-9h10p9h10-|
E-------12-12-12-10h12p10h12---          E------------------------|

[Post-Chorus]
(Troy)
e-----------------------------------7/10/14------------|
B---14/15\14/15\14/15\14---5\3--5/7----------14/5\8~~~-|
G#-----------------------------------------------------|
E------------------------------------------------------|
B------------------------------------------------------|
E------------------------------------------------------|

[Verse 2]
(Dean)
e---------------------------------------------|
B---------------------------------------------|
G---------------------------------------------|
D--9-9-9-9-9--------------9-------------------|
A------------10-9-9-9-9-9--10-10-10-9h10p9h10-|
E---------------------------------------------|

[Bridge]
(Josh)
e--------------------------------------------------------------|
B--------------------------------------------------------------|
G-----------------11--9----------------------12s14-----12--11--|
D---9---9--9--12---------12--11--11--11--11---------14---------|
A--10--10-10--10-----------------12--12--12--------------------|
E--------------------------------------------------------------|

e----------------------------------------------------------------------------|
B----------------------------------------------------------------------------|
G-----------------------------------------------------14------------------12-|
D--13--13--13--16--17b--16--13--------13--13--13--16------11--11--11--14-----|
A--14--14--14--14--14---14--14--------14--14--14----------12--12-------------|
E----------------------------------------------------------------------------|

[Bridge]
(Troy)
e---10\7-10\7-10\9-10\9-10/12-14\7-10/12/19-------------5/7---------5/7------5/7-14\10\7~~~-----12\-|
B------------------------------------------------5/7\5/7----5/7\5/7------5/7------------------------|
G#------------------------------------------(x2)-------------------------------------------(x2)-----|
E---------------------------------------------------------------------------------------------------|
B---------------------------------------------------------------------------------------------------|
E---------------------------------------------------------------------------------------------------|



************************************

| (n)  Ghost note
| h    Hammer-on
| p    Pull-off
| /    Slide up
| ~    Vibrato
| \    Slide down
| b    Bend
 

************************************

            
            
Suggest correction
Creating personal tab
Creating personal tab
You can edit any tab online and save it as your Personal.

You can edit, replace or remove any tab part or add personal notes – all changes will be seen only by you.

Personal tabs can be accessed anytime from any device, even offline.
Learn more »
Give kudos to tab author, rate the tab!
1 2 3 4 5
comments
print report bad tab
guest
You may want to rate the tab now too:
select rating
Wanna post a correction for this tab? Suggest correction