Oops, an error
Loading. Please wait.

Kalopsia Chords

version 1
version 1

Acoustic

  • This a softer version that is in standard tuning.

Whole song

6,023 views 24 this week
2 commentsread comments
1 2 3 4 5
please rate
add to favorites
launch autoscroll
font size
0
reset
transpose
0
reset
simplify chords
display chords
guitar tuner
Autoscroll
slow
fast
+/-
esc
set tempo
stop
Help us to improve Ultimate-Guitar.com Take our survey!
×
Author
Difficulty
Tuning
intermediate
D G C F A D
-------------------------------------------------------------------------------
                        KALOPSIA - Queens of the Stone Age
-------------------------------------------------------------------------------
Tabbed by: Daniel Love (Vash_15)
E-mail: vash_i5@yahoo.com

Tuning: D standard (DGCFAd)

So I did an acoustic cover of this song when it first came out, and a lot of 
people wanted chords/tabs. So here's an acoustic version of Kalopsia for those that wanted it.
http://www.youtube.com/watch?v=C_HPhlNXT-o

G#: x11989x
G:  x10978x
Cadd9: x32033
E: 022100
Eb: x68800
A: x02220
C: x32010

G#          G        Cadd9   G#
I've never lied to myself Tonight.
G#           G
Rose tinted eyes
         Cadd9               G#
Color my sorrows a shade of white...
d|--------------|--------|-------------|-------------|------------------|
A|--------------|--------|-------------|-------------|------------------|
F|--------------|--------|-------------|-------------|------------------|
C|--9---9-9-9-9-|-7-7777-|-10-10101010-|--9--9-9-9-9-|-10-10101010------|
G|-10--10101010-|-9-9999-|-12-12121212-|-10-10101010-|-12-12121212-(x4)-|
D|--0---0-0-0-0-|-0-0000-|--0--0-0-0-0-|--0--0-0-0-0-|--0--0-0-0-0------|
       Bye          bye      black         bird            ooh... 
         
   (If you don't feel like stretching your fingers just strum an E)  
d|-----------------------------|
A|-----------9129129129--------|
F|-141414141-9-99-99-99--------|
C|-222222222-9-99-99-99---(x2)-|
G|-222222222-------------------|
D|-000000000-------------------|
See you real soon.
Wave bye-bye... bye-bye




E               Eb
Oh, why you so sad?
                A   C
What have they done?!
    E                    Eb    
Forget those mindless baboons, They're off
         A   C
playing god!
E                 Eb                    A   C 
Copycats in cheap suits, all playing it safe
      E                  Eb                  A  C
While cannibals with bad news consume the parade

Is it wonderful?

d|-------------------------------------------------|
A|-------------------------------------------------|
F|-13-13131313-11-11111111-13-13131313-11-11111111-|
C|--x--x-x-x-x--x--x-x-x-x--x--x-x-x-x--x--x-x-x-x-|
G|-11-11111111--9--9-9-9-9-11-11111111--9--9-9-9-9-|
D|--0--0-0-0-0--0--0-0-0-0--0--0-0-0-0--0--0-0-0-0-|
                                                   |-x2
d|-------------------------------------------------|
A|-------------------------------------------------|
F|-11-11111111-9-9999-11-11111111-9-9999-----------|
C|--x--x-x-x-x-x-xxxx--x--x-x-x-x-x-xxxx-----------|
G|-10-10101010-7-7777--9--9-9-9-9-7-7777-----------|
D|--0--0-0-0-0-0-0000--0--0-0-0-0-0-0000-----------|

d|-----------------------------|
A|-----------9129129129--------|
F|-141414141-9-99-99-99--------|
C|-222222222-9-99-99-99---(x2)-|
G|-222222222-------------------|
D|-000000000-------------------|

G#            G
Far, far from shore
         C
Bland of nightmares
            G#
Gone forevermore
    G#            G
And I... love you more
     C            G#
Than I... can control
d|--------------|--------|-------------|-------------|------------------|
A|--------------|--------|-------------|-------------|------------------|
F|--------------|--------|-------------|-------------|------------------|
C|--9---9-9-9-9-|-7-7777-|-10-10101010-|--9--9-9-9-9-|-10-10101010------|
G|-10--10101010-|-9-9999-|-12-12121212-|-10-10101010-|-12-12121212-(x4)-|
D|--0---0-0-0-0-|-0-0000-|--0--0-0-0-0-|--0--0-0-0-0-|--0--0-0-0-0------|
        I         don't      e-            ven           try
Why would I?

E                Eb
Oh, why the long face?
                  A     C
You've got it all wrong!
    E                 Eb
Forget the rat in the race
                       A   C 
The chump chained them all
E               Eb
Fate favors the ones
             A     C
Who help themselves
    E                          Eb
The rest feel the sting of the lash
        A        E  
As they run to hell

Repeat E Eb A C until you feel like fading out
Suggest correction
Give kudos to tab author, rate the tab!
1 2 3 4 5
comments
print report bad tab
2 comments total.
0 reply
sheks 72 wrote on June 18 2013, 05:08 pm

G#: x11989x really?

0 reply
celsoxp 41 wrote on September 25 2016, 03:19 pm

LOL(filler cause LOL is too short)

guest
You may want to rate the tab now too:
select rating
Please do not post tabs as comments. Select "correction" instead!