Oops, an error
Loading. Please wait.

Kalopsia Bass Tab

version 2
version 2

Whole song

2,880 views 18 this week
no commentswrite comment
1 2 3 4 5
excellent!
x 8
add to favorites
launch autoscroll
font size
0
reset
guitar tuner
Tab Pro tools
  • play this tab
  • loop segment
  • change instrument
  • show fretboard
  • metronome
×
Best way to learn
"Kalopsia"
Autoscroll
slow
fast
+/-
esc
set tempo
stop
Contributor
Difficulty
-------------------------------------------------------------------------------
                             Queens of the Stone Age - Kalopsia
-------------------------------------------------------------------------------
Tabbed by: Jake Davies
E-mail: jake.davies1999@gmail.com

Tuning:EADG

I accidentally listed this tab as a guitar tab last time so this is just fixing that problem.

(Note: The quieter parts of the song are not played on bass, however this sounds pretty 
legit so use it if you want)

G|-----------------|
D|-----------------|
A|--5--------0--5--|
E|-----------------| x2

G|------------------------------|
D|------------------------------|
A|--5-7-8-------------1----3----|
E|--------6--------1------------|

G|-----------------|
D|-----------------|
A|--5--------0--5--|
E|-----------------|

Everything x2

G|------------------------|
D|--------5--7------------|
A|--8--7------------------|
E|--------------6----6----|

G|-----------------|
D|-----------------|
A|--5-------0--5---|
E|-----------------| x2

(Enter Bass)

G|--------------------------|
D|--------------------------|
A|--55-5-5-5\---44-4-4-4----|
E|--------------------------|

G|---------------------------|
D|---------------------------|
A|---------------------------|
E|--33-3-3-3----66-6-6-6\----|

G|-----------------6---------|
D|-------------------4-------|
A|--55-5-5-5\---44-----4-----|
E|---------------------------|

G|---------------------------|
D|---------------------------|
A|---------------------------|
E|--33-3-3-3----66-6-6-6-8\--|

G|-----------------6---------|
D|-------------------4-------|
A|--55-5-5-5\---44-----4/----|
E|---------------------------|

G|---------------------------|
D|---------------------------|
A|-----------5---------------|
E|--33-3-3-3---5-66-6-6-6-8\-|

G|-----------------6---------|
D|-------------------4-------|
A|--55-5-5-5\---44-----4/----|
E|---------------------------|

G|---------------------------|
D|---------------------------|
A|-----------5---------------|
E|--33-3-3-3---5-6-----------|

G|-----------------|
D|-----------------|
A|--5--------0--5--|
E|-----------------| x5

G|------------------------|
D|--------5--7------------|
A|--8--7------------------|
E|--------------6----6----|

G|-----------------|
D|-----------------|
A|--5--------0--5--|
E|-----------------| x4

G|------------------------------|
D|------------------------------|
A|--5-7-8-------------1----3----|
E|--------6--------1------------|

G|-----------------|
D|-----------------|
A|--5--------0--5--|
E|-----------------| x3

G|------------------------------|
D|------------------------------|
A|--5-7-8-------------1----3----|
E|--------6--------1------------|

G|-----------------|
D|-----------------|
A|--5--------0--5--|
E|-----------------|

G|------------------------|
D|--------5--7------------|
A|--8--7------------------|
E|--------------6----6----|


G|-----------------6---------|
D|-------------------4-------|
A|--55-5-5-5\---44-----4-----|
E|---------------------------|

G|---------------------------|
D|---------------------------|
A|---------------------------|
E|--33-3-3-3----66-6-6-6-8\--|

G|-----------------6---------|
D|-------------------4-------|
A|--55-5-5-5\---44-----4-----|
E|---------------------------|

G|---------------------------|
D|---------------------------|
A|-----------5---------------|
E|--33-3-3-3---5-66-6-6-6-8\-|

G|-----------------6---------|
D|-------------------4-------|
A|--55-5-5-5\---44-----4/----|
E|---------------------------|

G|---------------------------|
D|---------------------------|
A|-----------5---------------|
E|--33-3-3-3---5-66-6-6-6-8\-|

G|---------------------------|
D|---------------------------|
A|--5----5----4----4---------|
E|---------------------------|

G|---------------------------|
D|---------------------------|
A|-----------5---------------|
E|--33-3-3-3---5-66-6-6-6-8--|

G|---------------------------|
D|---------------------------|
A|--5----5----4----4---------|
E|---------------------------|

Breakdown Part -

G|-------------------------|
D|-----------7\5-----------|
A|-----8\5-5--------8\5-5\-|
E|--66-----------66--------|

G|------------------7------|
D|-----------7\5-55--7-8\--|
A|-----8\5-5---------------|
E|--66---------------------|

G|-------------------------|
D|-----------7\5-----------|
A|-----8\5-5--------8\5-5\-|
E|--66-----------66--------|

G|-------------------------|
D|-----------7\5-5---------|
A|-----8\5-5---------------|
E|--66---------------------|

I know this wont be 100% correct but I don't think I'm too far off.






| /  slide up
| \  slide down
| h  hammer-on
| p  pull-off
| ~  vibrato
| +  harmonic
| x  Mute note
===============================================================================
comments
print report bad tab
I want to post or [tab]
guest
You may want to rate the tab now too:
select rating
Please do not post tabs as comments. Select "correction" instead!