Oops, an error
Loading. Please wait.

Kalopsia Acoustic chords

version 3
version 3

Whole song

880 views 18 this week
no commentswrite comment
1 2 3 4 5
3 more votes to show rating
add to favorites
×
Save as Personal and add changes to this tab that will be seen only by you. Learn more ›
×
You can save this tab as Personal to edit and correct it or add notes. All changes will be seen only by you. Learn more »
launch autoscroll
font size
0
reset
transpose
0
reset
simplify chords
display chords
guitar tuner
edit
Autoscroll
slow
fast
+/-
esc
set tempo
stop
Author
Difficulty
About this tab version
This a softer version that is in standard tuning. Was this info helpful? Yes No
Strumming
There is no strumming pattern for this song yet. and get +5 IQ
Came up with this myself, not an official thing.
It's kind of a softer, almost jazzy version.



Dmaj7add9:        Bbmaj7:       Cmaj7/G:               Amaj7:                A:
|----0----|         |----0----|       |----0----|          |----0----|       |----5----|
|----7----|         |----3----|       |----0----|          |----2----|       |----5----|
|----6----|         |----2----|       |----0----|          |----1----|       |----6----|
|----7----|         |----3----|       |----2----|          |----2----|       |----7----|
|----5----|         |----1----|       |----3----|          |----0----|       |----0----|
|---------|         |---------|       |----3----|          |---------|       |---------|

 
C#m:                  A#:                 C:         
   |----0----|          |----8----|        |----0----|
   |----5----|          |----6----|        |----5----|
   |----6----|          |----7----|        |----4----|
   |----6----|          |----8----|        |----5----|
   |----4----|          |----x----|        |----3----|
   |---------|          |----6----|        |---------|


~~~~INTRO~~~~

Hold the first chord of the song and run your pick
down the A string perpendicular. 

~~~~VERSE 1~~~~
D
I never lie
   Bb      C
To myself
D
Tonight.

D
Rose, tinted eyes
        Bb
Color my sorrow
  C        D
A shade of white

Amaj7   G      A#     A    A#
Bye     bye    black  bal-loon
D
See you real soon
D
Wave bye bye

Bye bye


~~~~CHORUS 1~~~~
D             C#m
Oh, why you so sad
              G       A#       C      
What have they done?
  D                     C#m
Forget those mindless baboons
                    G      A#     C
They're off playing God
D                  C#m
Copy cats in cheap suits
                G     A#     C
All playing it safe
      D                C#m
While cannibals of bad news
              G     A#
Consume a parade


~~~~BREAK~~~~
Appregiate up and down

D           A#    C    D
Amaj7   G   A#    A    A#
D

~~~~VERSE 2~~~~
D
Far, far from shore
            Bb
The land of nightmares
     C       D
Gone forever more

D
And I love you more
Bb     C    D
Than I can control
Amaj7   G        A# A  A#
I       don't    ev-en try
A#
Why would I?



~~~~CHORUS 2~~~~
D               C#m
Oh why the long face?
                  G     A#     C
You've got it all wrong
   D                  C#m
Forget the rat in the race
                       G     A#    C
We'll choke chain them all

D               C#m
Fates favor the ones
              G     A#    C
Who help themselves



~~~~BRIDGE~~~~
     D             D            C#m      C#m         
The rest feel the sting of the lash
        G  
As they row
A#            C
The boat, the boat to 
D   D    C#m    C#m     C
HELL




~~~~OUTRO~~~~

e|------0-----0-------0-----0-----|
b|-----6-----8------10-----8------|
G|----7-----9-----10------9-------|  x however many times you want
D|---0-----0-----0-------0--------|
A|--------------------------------|
E|--------------------------------|



            
            
Suggest correction
Creating personal tab
Creating personal tab
You can edit any tab online and save it as your Personal.

You can edit, replace or remove any tab part or add personal notes – all changes will be seen only by you.

Personal tabs can be accessed anytime from any device, even offline.
Learn more »
Give kudos to tab author, rate the tab!
1 2 3 4 5
comments
print report bad tab
guest
You may want to rate the tab now too:
select rating
Wanna post a correction for this tab? Suggest correction