Oops, an error
Loading. Please wait.

Keep Your Eyes Peeled Tab

version 2
version 2

Whole song

  • It is based on the Live sessions and the Album ver... Show more

Interactive

13,909 views 48 this week
no commentswrite comment
1 2 3 4 5
accurate
x 16
add to favorites
launch autoscroll
font size
0
reset
how to read this tab
guitar tuner
Autoscroll
slow
fast
+/-
esc
set tempo
stop
Help us to improve Ultimate-Guitar.com Take our survey!
×
Author
Difficulty
Tuning
advanced
C F A# D# G C
c |---------------------------------------------|
G |---------------------------------------------| [Josh Homme]
D#|---------------------------------------------|
A#|----------------------------2h3-1------------|
F |-2-------------2-----------------------------|
C |-0-------------0-----------------------------|

c |---------------------------------------------|
G |---------------------------------------------|
D#|---------------------------------------------|
A#|----------------------------2-3-1------------|
F |-2-2--2-2-2--2-2-----1-2---------------------|
C |-0-0--0-0-0--0-0--0-------3------------------| (2x)

"Don’t look, just keep your eyes peeled" [...]

c |---------------------------------------------|
G |---------------------------------------------| [Josh Homme]
D#|---------------------------------------------|
A#|----------------------------2-3-1------------|
F |-2-2--2-2-2--2-2-----1-2---------------------|
C |-0-0--0-0-0--0-0--0-------3------------------| (3x)

c |---------------------------------------------|
G |---------------------------------------------| [Josh Homme]
D#|---------------------------------------------|
A#|--------------------4b-b4----4b-4b-----------|
F |-2-2--2-2-2--2-2-----------------------------|
C |-0-0--0-0-0--0-0--0-------0------------------|


c |------------------------------------------------------|
G |------------------------------------------------------| [Troy Van Leeuwen - FX: delay + flanger]
D#|-----12-11--------------------------------------------|
A#|------------12-14-16----------------------------------|
F |----------------------17-16---17-16-14----------------| (3x)
C |------------------------------------------------------|

"Slowly, can one so lost be found?"

c |-----15-17---10-12-14---------------------------------|
G |-----------------------15-14---15-14-12---------------| [Troy Van Leeuwen - FX: delay + flanger]
D#|------------------------------------------------------|
A#|------------------------------------------------------|
F |------------------------------------------------------|
C |------------------------------------------------------|


"And I know you will never believe"

c |---------------------------------|
G |---------------------------------|
D#|-------14-14-14-------12-12-12---|
A#|---------------------------------| 
F |-------12-12-12-------10-10-10---| 
C |---------------------------------| (4x)
         [------   wah   ----------]


"Fallen leaves realize they are no friend of autumn"

c |---------------------------------------------|
G |---------------------------------------------|
D#|---------------------------------------------|
A#|----------------------------2-3-1------------|
F |-2-2--2-2-2--2-2-----1-2---------------------|
C |-0-0--0-0-0--0-0--0-------3------------------| (2x)


  "The view from Hell is blue sky"

c |-----9--9----9--9--------9--9---9--------10-----------|
G |------------------------------------------------------|
D#|------------------------------------------------------|
A#|------------------------------------------------------|
F |---7--7---7--7-------0--0----0----0---10----10--------|
C |------------------------------------------------------|

   "So ominously blue"

c |-----9--9----9--9--------9--9---9------10-------------|
G |------------------------------------------------------|
D#|------------------------------------------------------|
A#|------------------------------------------------------|
F |---9--9----9--9-------0--0----0--0--10----10----------|
C |------------------------------------------------------|

  "I daydream until all the blue is gone"

c |------------------------------------------------------|
G |------------------------------------------------------|
D#|------------------------------------------------------|
A#|------------------------------------------------------|
F |------8--7--10--12--7--8--7--8--7---------------------|
C |------------------------------------------------------|

Bridge:

c |------------------------------------------------------|
G |------------------------------------------------------|
D#|------------------------------------------------------|
A#|------------------------------------------------------|  (2x)
F |-------------4~-----------------4~--------------------|
C |--2---2-2-2----------2---2-2-2------------------------|

  "Underwater is another life" [...]

c |------------------------------------------------------|
G |-----8-7--5-----8-7-----------3~------------/5~-------|
D#|------------6----------4h6p4--------2h4p2-------------|
A#|------------------------------------------------------|
F |------------------------------------------------------|
C |------------------------------------------------------|

Suggest correction
comments
print report bad tab
guest
You may want to rate the tab now too:
select rating
Please do not post tabs as comments. Select "correction" instead!