Oops, an error
Loading. Please wait.

Keep Your Eyes Peeled tab

version 3
version 3

Whole song

  • It is based on the Live sessions and the Album ver... Show more

Interactive

433 views 6 this week
no commentswrite comment
1 2 3 4 5
1 last vote to show rating
add to favorites
×
Save as Personal and add changes to this tab that will be seen only by you. Learn more ›
×
You can save this tab as Personal to edit and correct it or add notes. All changes will be seen only by you. Learn more »
launch autoscroll
font size
0
reset
how to read this tab
guitar tuner
backing track
0:00
0:00
edit
Autoscroll
slow
fast
+/-
esc
set tempo
stop
About this tab version
It is based on the Live sessions and the Album version. In the album, mostly everyone couldn't hear the Bridge clearly. Even though it is not 100%, it's the most accurate for now. Was this info helpful? Yes No
This song has 3 guitars included but i will only do the 2 main guitars: Josh's and Troy's
Guit.1: Josh
Guit.2: Troy


[Intro]

Guit.2 won't appear until the chorus

Guit.1: Keep playing the main riff throughout the song

(Main Riff)  (Riff Variation 1)                    (R.V 2)
C |-------|  |----------|  |-----------------|  |-------------|
G |-------|  |----------|  |-----------------|  |-------------|
D#|-------|  |----------|  |-----------------|  |-------------|
A#|-------|  |---4br5---|  |-----------------|  |-------2h3-1-|
F |---2---|  |----------|  |----2|-2||-2-2-2-|  |-1h2---------|
C |---0---|  |----------|  |----0|-0||-0-0-0-|  |-----3-------|

C |--------------------|   |-------------|  
G |--------------------|   |-------------|
D#|--------------------|   |-------------|
A#|--------------------|   |-------2h3-1-|
F |-2|-2||-2-2-2-------|   |-1h2---------|
C |-0|-0||-0-0-0-------|   |-----3-------|


[Verse 1]

Guit.1 only also, until "Shotgun..."

Don’t look, just keep your eyes peeled
C |--------------------|   |-------------|  
G |--------------------|   |-------------|
D#|--------------------|   |-------------|      X2
A#|--------------------|   |-------2h3-1-|
F |-2|-2||-2-2-2-------|   |-1h2---------|
C |-0|-0||-0-0-0-------|   |-----3-------|

Thoughtless, traipsing my minds field
C |--------------------|   |-------------|  
G |--------------------|   |-------------|  
D#|--------------------|   |-------------|  
A#|--------------------|   |-------2h3-1-|  
F |-2|-2||-2-2-2-------|   |-1h2---------|  
C |-0|-0||-0-0-0-------|   |-----3-------|  

C |--------------------|   |--------------------|
G |--------------------|   |--------------------|
D#|--------------------|   |--------------------|
A#|--------------------|   |-4b5-4br5-4b5-4br5--|
F |-2|-2||-2-2-2-------|   |--------------------|
C |-0|-0||-0-0-0-------|   |--------------------|

Shotgun, never behind the wheel anymore
C |--------------------|   |-------------|  
G |--------------------|   |-------------|
D#|--------------------|   |-------------|    
A#|--------------------|   |-------2h3-1-|
F |-2|-2||-2-2-2-------|   |-1h2---------|
C |-0|-0||-0-0-0-------|   |-----3-------|

C |--------------------|   |-------------|  
G |--------------------|   |-------------|
D#|--------------------|   |-------------|
A#|--------------------|   |-------------|
F |-2|-2||-2-2-2-------|   |-3h4p3-3b4---|
C |-0|-0||-0-0-0-------|   |-------------|

Guit.2 (after "wheel", then go silence until Chorus)
C |--------------|
G |--------------|
D#|--9-///12-----|
A#|--9-///12-----|
F |--------------|
C |--------------|

Danger, monsters of smoke & mirror
C |--------------------|   |-------------|  
G |--------------------|   |-------------|
D#|--------------------|   |-------------|    
A#|--------------------|   |-------2h3-1-|
F |-2|-2||-2-2-2-------|   |-1h2---------|
C |-0|-0||-0-0-0-------|   |-----3-------|

C |--------------------|   |-------------|  
G |--------------------|   |-------------|
D#|--------------------|   |-------------|    
A#|--------------------|   |-------------|
F |-2|-2||-2-2-2-------|   |-1h2---1h2---|
C |-0|-0||-0-0-0-------|   |-----3-----3-|

Slowly, can one so lost be found?
C |--------------------|   |-------------|  
G |--------------------|   |-------------|
D#|--------------------|   |-------------|    
A#|--------------------|   |-------2h3-1-|
F |-2|-2||-2-2-2-------|   |-1h2---------|
C |-0|-0||-0-0-0-------|   |-----3-------|

C |--------------------|   |---------------|  
G |--------------------|   |---------------|
D#|--------------------|   |---------------|    
A#|--------------------|   |---------------|
F |-2|-2||-2-2-2-------|   |-4b5-4br5-3br4-|
C |-0|-0||-0-0-0-------|   |---------------|


[Chorus]

Easier for both Guitars

Guit.2 (First)
And I know you'll never believe
I play this as though I’m alright
If life is but a dream, then
C |------------|
G |------------|
D#|--14--12----|
A#|--x---x-----|
F |--12--10----|
C |------------|
                                X3
Guit.1(Second)
C |-----------------|
G |-----------------|
D#|-----------------|
A#|-----------------|
F |-2|-2||-2--------|
C |-0|-0||-0--------|

Still Guit.2 
Wake me
C |------------|
G |------------|
D#|--14--12----|
A#|--x---x-----|
F |--12--10----|
C |------------|


[Verse 2]

Guit.1
...up (After the Chorus)
C |--------------------|   |-------------|  
G |--------------------|   |-------------|
D#|--------------------|   |-------------|    
A#|--------------------|   |-------2h3-1-|
F |-2|-2||-2-2-2-------|   |-1h2---------|
C |-0|-0||-0-0-0-------|   |-----3-------|

C |--------------------|   |----------------|  
G |--------------------|   |----------------|
D#|--------------------|   |----------------|    
A#|--------------------|   |-------2b3-2br3-|
F |-2|-2||-2-2-2-------|   |-1h2------------|
C |-0|-0||-0-0-0-------|   |-----3----------|

Fallen leaves realize they are no friend of autumn
C |--------------------|   |-------------|  
G |--------------------|   |-------------|
D#|--------------------|   |-------------|    
A#|--------------------|   |-------2h3-1-|
F |-2|-2||-2-2-2-------|   |-1h2---------|
C |-0|-0||-0-0-0-------|   |-----3-------|

C |--------------------|   |--------------|  
G |--------------------|   |--------------|
D#|--------------------|   |--------------|    
A#|--------------------|   |-2b3-2br3-2b3-|
F |-2|-2||-2-2-2-------|   |--------------|
C |-0|-0||-0-0-0-------|   |--------------|


[Interlude]

Guit.2 only
The view from Hell is blue sky
C |---9--9---9--9--9--9---9------10-------|
G |---------------------------------------|
D#|---------------------------------------|
A#|---------------------------------------|
F |--7--7---7--7--0--0---0--0--10--10-----|
C |---------------------------------------|

So ominously blue
C |---9--9---9--9--9--9---9------10-------|
G |---------------------------------------|
D#|---------------------------------------|
A#|---------------------------------------|
F |--7--7---7--7--0--0---0--0--10--10-----|
C |---------------------------------------|

I daydream until all the blue is gone
C |---------------------------------------|
G |--------8-10---------------------------|
D#|-------------9-10-9h10p9---------------|
A#|----9--------------------10------------|
F |--8---8---------------------8\\--------|
C |---------------------------------------|

Guit.1 now goes in with the Main Riff
C |--------------------|    
G |--------------------|   
D#|--------------------|       
A#|--------------------|  
F |-2|-2||-2-2-2-------|   
C |-0|-0||-0-0-0-------|


[Chorus]

And I know you'll never believe
I play this as though I’m alright
If life is but a dream, then
C |------------|
G |------------|
D#|--14--12----|
A#|--x---x-----|
F |--12--10----|
C |------------|
                                X3
Guit.1(Second)
C |-----------------|
G |-----------------|
D#|-----------------|
A#|-----------------|
F |-2|-2||-2--------|
C |-0|-0||-0--------|


[Break]

Both Guitars (after "Wake me!")
Guit.1
C |---------------------|
G |----------7b8--------|
D#|---------------------|
A#|---------------------|
F |---------------------|
C |--0h2-2||------------|
                                      X4
Guit.2
C |---------------------|
G |---------------------|
D#|---------------------|
A#|---------------------|
F |----------4b5--------|
C |--0h2-2||------------|


[Bridge]

Guit.1
Underwater is another life
    C      D
C |---|  |-x-|  |-----------------------------------|
G |---|  |-2-|  |-2-h3p2---2----2-----------2-------|
D#|-0-|  |-3-|  |--------4----4---4-3-3h4p3---------|
A#|-2-|  |-4-|  |-----------------------------------|
F |-2-|  |---|  |-----------------------------------|
C |---|  |---|  |-----------------------------------|

Guit.2
C |------------------------------------------------------|
G |------------------------------------------------------|
D#|---------------------------------------4~-7~----------|
A#|--------------/9~--11~-11~-11~--8~-9~--------11~------|
F |-/7~-/9~-/10~------------------------------------13~--|
C |------------------------------------------------------|

Guit.1
Disregarding every myth we write
    C      D
C |---|  |-x-|  |-----------------------------------|
G |---|  |-2-|  |-2-h3p2---2----2-----------2-------|
D#|-0-|  |-3-|  |--------4----4---4-3-3h4p3---------|
A#|-2-|  |-4-|  |-----------------------------------|
F |-2-|  |---|  |-----------------------------------|
C |---|  |---|  |-----------------------------------|

Guit.2
C |------------------------------------------------------|
G |-------------------------------------------------11~--|
D#|---------------------------------------4~-7~----------|
A#|--------------/9~--11~-11~-11~--8~-9~--------11~------|
F |-/7~-/9~-/10~-----------------------------------------|
C |------------------------------------------------------|

Guit.1
Rag doll churning
Eagerly alive
    C      D
C |---|  |-x-|  
G |---|  |-2-|  
D#|-0-|  |-3-|  
A#|-2-|  |-4-|  
F |-2-|  |---|  
C |---|  |---|  

Guit.2
C |-------------------|
G |-------------------|
D#|-------------------|
A#|--------------/9~--|
F |-/7~-/9~-/10~------|
C |-------------------|

(Over & over, gasping in horror
So breathless you surface
Just as the next wave is…)
Guit.1
C |---------------------|
G |----------7b8--------|
D#|---------------------|
A#|---------------------|
F |---------------------|
C |--0h2-2||------------|
                                      X4
Guit.2
C |---------------------|
G |---------------------|
D#|---------------------|
A#|---------------------|
F |----------4b5--------|
C |--0h2-2||------------|


[Verse 3]

Big smile, really a show of teeth
Back to Guit.1 Only
C |--------------------|   |-------------|  
G |--------------------|   |-------------|
D#|--------------------|   |-------------|    
A#|--------------------|   |-------2h3-1-|
F |-2|-2||-2-2-2-------|   |-1h2---------|
C |-0|-0||-0-0-0-------|   |-----3-------|


C |--------------------|   |---------------|  
G |--------------------|   |---------------|
D#|--------------------|   |---------------|    
A#|--------------------|   |--------2b3----|
F |-2|-2||-2-2-2-------|   |-1h2-----------|
C |-0|-0||-0-0-0-------|   |-----3---------|

Without a care in a world of fear
C |--------------------|   |-------------|  
G |--------------------|   |-------------|
D#|--------------------|   |-------------|    
A#|--------------------|   |-------2h3-1-|
F |-2|-2||-2-2-2-------|   |-1h2---------|
C |-0|-0||-0-0-0-------|   |-----3-------|


C |--------------------|   |---------------|  
G |--------------------|   |---------------|
D#|--------------------|   |---------------|    
A#|--------------------|   |---------------|
F |-2|-2||-2-2-2-------|   |-4b5-4br5-3b4--|
C |-0|-0||-0-0-0-------|   |---------------|


[Outro]

Lonely, you don’t know how I feel
C |--------------------|   |-------------|  
G |--------------------|   |-------------|
D#|--------------------|   |-------------|    
A#|--------------------|   |-------2h3-1-|
F |-2|-2||-2-2-2-------|   |-1h2---------|
C |-0|-0||-0-0-0-------|   |-----3-------|


C |--------------------|   |---------------|  
G |--------------------|   |---------------|
D#|--------------------|   |---------------|    
A#|--------------------|   |---------------|
F |-2|-2||-2-2-2-------|   |-4b5-4br5-3b4--|
C |-0|-0||-0-0-0-------|   |---------------|

Praise God, nothing is as it seems 
C |--------------------|   |---------------|  
G |--------------------|   |---------------|
D#|--------------------|   |---------------|    
A#|--------------------|   |----------3br4-|
F |-2|-2||-2-2-2-------|   |-4b5-4br5------|
C |-0|-0||-0-0-0-------|   |---------------|

C |--------------------|   |-------------|  
G |--------------------|   |-------------|
D#|--------------------|   |-------------|    
A#|--------------------|   |-------2h3-1-|
F |-2|-2||-2-2-2-------|   |-1h2---------|
C |-0|-0||-0-0-0-------|   |-----3-------|


I am guarantee that this is 95% accurate tab, because the Interlude & Bridge is still a bit foggy for me
when listening to the Album version. Also, it's clearly much better if you play the Live version based on 
the videos. I'll update the tab when i have seen the problems & following your opinions



************************************

| x   Dead note
| h   Hammer-on
| p   Pull-off
| b   Bend
| br  Bend release
| /   Slide up
| \   Slide down
| ~   Vibrato

************************************

            
            
Suggest correction
Creating personal tab
Creating personal tab
You can edit any tab online and save it as your Personal.

You can edit, replace or remove any tab part or add personal notes – all changes will be seen only by you.

Personal tabs can be accessed anytime from any device, even offline.
Learn more »
Give kudos to tab author, rate the tab!
1 2 3 4 5
comments
print report bad tab
guest
You may want to rate the tab now too:
select rating
Wanna post a correction for this tab? Suggest correction