Oops, an error
Loading. Please wait.

Leg Of Lamb Tab

version 1
version 1

Whole song

Interactive

3,504 views 18 this week
1 commentread comment
1 2 3 4 5
x 3
add to favorites
×
Save as Personal and add changes to this tab that will be seen only by you. Learn more ›
×
You can save this tab as Personal to edit and correct it or add notes. All changes will be seen only by you. Learn more »
save as personal
new!
launch autoscroll
font size
0
reset
how to read this tab
guitar tuner
Autoscroll
slow
fast
+/-
esc
set tempo
stop
Author
Queens of the Stone Age - Leg of Lamb

Lead riff:
                                                          Slide:
e|--------------------------------------------------|---------------------|
B|--------------------------------------------------|---------------------|
G|----------7---------------------------------------|---------------------|
D|-------6-----6------------------------------------|--------///16\\\-----|
A|--7h9---------------------------------------------|---------------------|
E|------------------9p7h9---------------------------|---------------------|

Rhythm riff:
e|--------------------------------------------------|
B|--------------------------------------------------|
G|--7--7-<7>-<7>--7--7-<7>-<7>--7--7-<7>-<7>--------|
D|--7--7----------7--7----------7--7----------------|
A|--5--5----------5--5----------5--5----------------|
E|--------------------------------------------------|

Bridge:
e|--------------------------------------------------|
B|--------------------------------------------------|
G|--------------------------------------------------|
D|--------10----------------------------------------|
A|--------------13--12-/15\-12----------------------|
E|---8------12--------------------------------------|

Chorus:
e|------------------------------------------------------------------------|
B|------------------------------------------------------------------------|
G|--7-7--7-7--5-5--5-5--6-6--6-6------------------------------------------|
D|--7-7--7-7--5-5--5-5--6-6--6-6--7-7--7-7-88888888-33333333-55555555-----|
A|--5-5--5-5--3-3--3-3--4-4--4-4--7-7--7-7-88888888-33333333-55555555-----|
E|--------------------------------5-5--5-5-66666666-11111111-33333333-----|

-----------|
-----------|
-----------|
-77777777--|
-77777777--|
-55555555--|

Solo:
e|--------------------------------------------------|
B|--16b18rb-16b18-16b18rb-16b19rb-16b17rb-16v-------|
G|--------------------------------------------------|
D|--------------------------------------------------|
A|--------------------------------------------------|
E|--------------------------------------------------|
Suggest correction
Give kudos to tab author, rate the tab!
1 2 3 4 5
comments
print report bad tab
1 comment total.
0 reply
Explosiontaster 30 Aug 26, 2015 11:44 AM

Clearly wrong. The lead riff sounds nothing like it should I think it might need to be in a different tuning or something.

guest
You may want to rate the tab now too:
select rating
Wanna post a correction for this tab? Suggest correction