Oops, an error
Loading. Please wait.

Little Sister Tab

version 2
version 2

Whole song

56,771 views 21 this week
7 commentsread comments
1 2 3 4 5
x 18
add to favorites
launch autoscroll
font size
0
reset
how to read this tab
guitar tuner
backing track
0:00
0:00
×
Best way to learn
"Little Sister"
Autoscroll
slow
fast
+/-
esc
set tempo
stop
Author
I didn't tab this I got it from the QOTSA Forum but still post corrections.

main riff:

e-------------------|------------------------|
b--------------999--|------------------------|
g--666-----999-888--|----------999-999-8\6---|
d--666-666-999-666--|----------999-999-8\6---|
a--444-666-777-666--|--999-999-777-777-6\4---|
e------444----------|--999-999---------------|

chorus:

----------------------------------------------|
----------------------------------------------|
--64646464-4-4-4-4--86868686-64646464---------|
--44444444-22222222-66666666-44444444---------|
--44444444-22222222-66666666-44444444---------|
----------------------------------------------|

after chorus:

----------------------------------------------|
--12b-----------------------------------------|
------11b-11b---------------------------------|
--------------11b-----------------------------|
----------------------------------------------|
----------------------------------------------|

----------------------------------------------|
------999-----999-------------999-------------|
--666-888-999-888-666-888-999-888-------------|
--666-666-999-666-666-666-999-666-------------|
--444-----777-----444-666-777-----------------|
----------------------------------------------|

corrections? improvements?

impossible.

let me know anyway
Suggest correction
comments
print report bad tab
7 comments total. Showing first comments.
0 reply
jmscool 10 Feb 04, 2005 07:00 PM

after chorus:

----------------------------------------------|
--12b-----------------------------------------|
------11b-11b---------------------------------|
--------------11b-----------------------------|
----------------------------------------------|
----------------------------------------------|

shud be
----------------------------------------------|
--12-14bp12-----------------------------------|
------------11-13bp11-11-13bp11---------------|
-------------------------------11-13bp11------|
----------------------------------------------|
----------------------------------------------|
bends are slight

+2 reply
Moss 30 Feb 27, 2005 07:00 PM

Wrong again actually:

after chorus:
----------------------------------------------|
--12/14\12------------------------------------|
------------11/13\11--11/13\11----------------|
--------------------------------11/13\11------|
----------------------------------------------|
----------------------------------------------|

Thats what you wat, also wheres the solo dude? most of its the same guitar playing method as that bit ^^^

0 reply
tom_nik 230 May 11, 2005 08:00 PM

good tab but im sure that theyres 2 guitars playing in unision at the
start that give like a harmony.. but u did it good.
tab the solo

guest
You may want to rate the tab now too:
select rating
Wanna post a correction for this tab? Suggest correction