Oops, an error
Loading. Please wait.

Little Sister Bass Tab

version 4
version 4
4,222 views 12 this week
no commentswrite comment
1 2 3 4 5
1 last vote to show rating
add to favorites
launch autoscroll
font size
0
reset
guitar tuner
×
Best way to learn
"Little Sister"
Autoscroll
slow
fast
+/-
esc
set tempo
stop
Song: Little Sister
      By Queens Of The Stone Age

Tuning: Standard EADG

Intro
G|--------|
D|--------|
A|-11-11\-|
E|--------|

Verse Riff 1
G|------------------|------------------|
D|------------666---|------------666---|
A|-44-----777-----4-|-44-666-777-----4-|
E|----444-----------|------------------|

Verse Riff 2
G|------------------|------------------|
D|------------666---|------------------|
A|-44-----777-----4-|------------------|
E|----444-----------|-22-222-000-000-0-|

Chorus Riff 1
G|-----------------------------|
D|-----------------------------|
A|-----------------------------|
E|-22-222-00-000-44-444-22-222-|

Chorus Riff 2
G|---------------------------|
D|---------------------------|
A|---------------------------|
E|-22-222-00-000-44-44-44-44-|

Verse Riff 3
G|-----------------|------------------|
D|-----------------|------------666---|
A|-444-----777-----|-44-666-777-----4-|
E|-----444-----444-|------------------|

Solo Riff 1
G|----666-----888---|------------------|
D|------------------|------------------|
A|-44-----666-----4-|-44-666-777-----4-|
E|------------------|------------444---|

Solo Riff 2
G|-------------888---|
D|-----666-----------|
A|-444-----666-----4-|
E|-------------------|

Outro
G|-------|
D|-------|
A|-4~~~\-|
E|-------|

Order
Come in at 0:06
Intro 1x
Verse Riff 1 2x
Verse Riff 2 1x
Verse Riff 1 1x
Verse Riff 2 1x
Chorus Riff 1 3x
Chorus Riff 2 1x
Verse Riff 1 1x
Verse Riff 3 1x
Verse Riff 1 1x
Verse Riff 2 1x
Verse Riff 1 1x
Verse Riff 2 1x
Chorus Riff 1 3x
Chorus Riff 2 1x
Come in at 2:05
Intro 1x
Solo Riff 1 1x
Solo Riff 2 1x
Verse Riff 1 7x
Outro 1x

PLEASE RATE :)
Suggest correction
Give kudos to tab author, rate the tab!
1 2 3 4 5
comments
print report bad tab
guest
You may want to rate the tab now too:
select rating
Wanna post a correction for this tab? Suggest correction