Oops, an error
Loading. Please wait.

Little Sister Bass Tab

version 4
version 4
14,346 views 12 this week
2 commentsread comments
1 2 3 4 5
x 10
add to favorites
launch autoscroll
font size
0
reset
guitar tuner
Autoscroll
slow
fast
+/-
esc
set tempo
stop
Help us to improve Ultimate-Guitar.com Take our survey!
×
Author
Just updating my old tab, because i realized it was completely wrong.

Standard tuning


Intro
|-----------------------8-8-8-------------------------|
|-7-6-------6-6-6-------------------------------------|
|-----7-4-4-------7-7-7-------4-4-4-6-6-6-7-7-7-------|
|-----------------------------------------------4-4-4-|

Verse (x2)
|-------------------8-8-8-------------------------|
|-------6-6-6-------------------------------------|
|-4-4-4-------7-7-7-------4-4-4-6-6-6-7-7-7-------|
|-------------------------------------------4-4-4-|

|-------------------8-8-8-------------------------------|
|-------6-6-6-------------4-4-4-4-4-4-------------------|
|-4-4-4-------7-7-7-------------------7-7-7-7-7-7-6-4---|
|-------------------------------------------------------|

Chorus
|--------------------------------------------------------------|
|--------------------------------------------------------------|
|-9-9-9-9-9-9-0-9-0--7-7-7-7-7-7-0-7-0--11-11-11-11-11-0-11-0--|
|--------------------------------------------------------------|

|-----------------------------------------|
|-----------------------------------------|
|-9-9-9-9-9-9-0-9-0--9-0-9-0-9-0-9-0------|
|-----------------------------------------|

|--------------------------------------------------------------|
|--------------------------------------------------------------|
|-7-7-7-7-7-7-0-7-0--11-11-11-11-11-0-11-0--9-9-9-----7-9-9----|
|-------------------------------------------------7-9----------|

|--------------------------------------------------------------|
|--------------------------------------------------------------|
|-9-0-9-0-9-0-9-0--7-7-7-7-7-7-0-7-0--11-11-11-11-11-0-11-0----|
|--------------------------------------------------------------|

|-----------------------------------------------------|
|-----------------------------------------------------|
|-9-9-9-----7-9-9--9-0-9-0-9-0-9-0--7-7-7-7-7-7-0-7-0-|
|-------7-9-------------------------------------------|

|----------------------------------------------|
|----------------------------------------------|
|-11-11-11-0-11-11-11-0--11-0-11-0-11-0-11-0---|
|----------------------------------------------|

Bridge
|-------------------8-8-8-------------------------|
|-------6-6-6-------------------------------------|
|-4-4-4-------7-7-7-------4-4-4-6-6-6-7-7-7-------|
|-------------------------------------------4-4-4-|

|-------------------------------------------------|
|-------6-6-6-------6-6-6-------------------------|
|-4-4-4-------7-7-7-------4-4-4-6-6-6-7-7-7-------|
|-------------------------------------------4-4-4-|

Verse II (this sounds about right) (and x2)
|-----------------------8-8---------------------------------|
|-------6-6-6-----6---6-------6-----------------------------|
|-4-4-4-------6h7---7-------6-----4-4-6-6-6---6-7-7---7-----|
|-------------------------------------------9-------9---4-4-|

|-------------------8-8-8-------------------------------|
|-------6-6-6-------------4-4-4-4-4-4-------------------|
|-4-4-4-------7-7-7-------------------7-7-7-7-7-7-6-4---|
|-------------------------------------------------------|

Chorus
|--------------------------------------------------------------|
|--------------------------------------------------------------|
|-9-9-9-9-9-9-0-9-0--7-7-7-7-7-7-0-7-0--11-11-11-11-11-0-11-0--|
|--------------------------------------------------------------|

|-----------------------------------------|
|-----------------------------------------|
|-9-9-9-9-9-9-0-9-0--9-0-9-0-9-0-9-0------|
|-----------------------------------------|

|--------------------------------------------------------------|
|---------------------------------------------7----------------|
|-7-7-7-7-7-7-0-7-0--11-11-11-11-11-0-11-0--9---9-7-9-----7-9--|
|-----------------------------------------------------7-9------|

|--------------------------------------------------------------|
|--------------------------------------------------------------|
|-9-0-9-0-9-0-9-0--7-7-7-7-7-7-0-7-0--11-11-11-11-11-0-11-0----|
|--------------------------------------------------------------|

|-----------------------------------------------------|
|-----------------------------------------------------|
|-9-9-9-----7-9-9--9-0-9-0-9-0-9-0--7-7-7-7-7-7-0-7-0-|
|-------7-9-------------------------------------------|

|----------------------------------------------|
|----------------------------------------------|
|-11-11-11-0-11-11-11-0--11-0-11-0-11-0-11-0---|
|----------------------------------------------|

Solo:

*rest*

|-----------------------8-8-8-------------------------|
|-7-6-------6-6-6-------------------------------------|
|-----7-4-4-------7-7-7-------4-4-4-6-6-6-7-7-7-------|
|-----------------------------------------------4-4-4-|

|------------------8~------------|
|-------6-6-6--------------------|
|-4-4-4------7-7-7---------------|
|--------------------------------|

|-------------------8-8-8-------------------------|
|-------6-6-6-------------------------------6-6-6-|
|-4-4-4-------7-7-7-------4-4-4-6-6-6-7-7-7-------|
|-------------------------------------------------| x3

|-------------------8-8-8-------------------------|
|-------6-6-6-------------------------------------|
|-4-4-4-------7-7-7-------4-4-4-6-6-6-7-7-7-------|
|-------------------------------------------4-4-4-|

|-----------------------8-8---------------------------------|
|-------6-6-6-----6---6-------6-----------------------------|
|-4-4-4-------6h7---7-------6-----4-4-6-6-6---6-7-7---7-----|
|-------------------------------------------9-------9---4-4-|

|----------------------------13-13-13---|
|-11-11-11-13-13-13-14-14-14------------|
|---------------------------------------|
|---------------------------------------|

|------------------------------------------------|
|-11-11-11-9-9-9-7-7-7-6-6-6---------------------|
|----------------------------4-4~----4/6\0-------|
|------------------------------------------------|

There it is peeps. This is how i play it, and it sounds pretty good. So have fun.

~Lostprophit
Suggest correction
comments
print report bad tab
2 comments total.
0 reply
Dead Marshal 93 Jan 06, 2008 07:58 PM

during the end


D|-----------------------------------13-13---------------------------------------
A|11-11-11--13-13-13--14-14-14-13-14-------14-13--11-11--11--9-9-9---------6-6---
G|-----------------------------------------------------11-------9--7-7-6-7----7-6
E|-------------------------------------------------------------------------------



then end of 4~/6\0

0 reply
BowlboKhabra92 31 Sep 21, 2010 07:54 PM

ends on A|-4-|. and ur second verse doesnt sound right. and the intro doesnt start with the 6s and 7s. 3stars cuz the verse is okay. ish.

guest
You may want to rate the tab now too:
select rating
Wanna post a correction for this tab? Suggest correction