Oops, an error
Loading. Please wait.

Misfit Love bass

version 1
version 1

Whole song

Interactive

7,480 views 21 this week
1 commentread comment
1 2 3 4 5
x 4
add to favorites
×
Save as Personal and add changes to this tab that will be seen only by you. Learn more ›
×
You can save this tab as Personal to edit and correct it or add notes. All changes will be seen only by you. Learn more »
launch autoscroll
font size
0
reset
guitar tuner
edit
Autoscroll
slow
fast
+/-
esc
set tempo
stop
Author
Artist: Queens of the Stone Age
Track: Misfit Love
Album: Era Vulgaris
Tabbed by Jerryzzz (jdanilko@gmail.com)

Legend:
~   - let ring
x   - muted string
\   - slide down
/   - slide up
h   - hammer-on
p   - pull-off

Intro (keyboard, but you can play it on bass, because it's pretty good intro :))

Eb|-------------------------------------------------------------------------|
Bb|-0~~~~~~~~~~~----------0~~~~~~~~~~~--------------------------------------|
_F|-------------4~~~~1~~~~------------4~~~~1~~~~----------------------------|
_C|-------------------------------------------------------------------------|

Drums part (0:15 - 0:26)

Eb|---------------|
Bb|---------------|
_F|--(x)-(x)-(x)--|
_C|--(x)-(x)-(x)--|

0:27 (in the beginning it's hard to feels, but keep on practice! :))

Eb|------------------------------------------------------------------|\
Bb|------------------------------------------------------------------| \ x2 _
 F|------------------------------------------------------------------| /
_C|--4-4-4-6\0-------4h6-6\0-------4h6-6\0-------4h6-6\0-------------|/

 Eb|----------------------------------------------------------------------------|
Bb|----------------------------------------------------------------------------|
_F|----------------------------------------------------------------------------|
_C|-4-4-4-6\0------4h6p4h6-6\0------4h6-6\0------4h6p4h6-6\0------4-4-4-4-6\0--|

Eb|---------------------------------------------------------------------|\
Bb|---------------------------------------------------------------------| \ * 
_F|---------------------------------------------------------------------| /
_C|--4h6p4h6-6~-------4h6-6~-------4h6p4h6-6~-------4-4-4-4-6~----------|/

* Repeat & repeat & repeat...

Bridge (2:12 - 2:20)
 Eb|-------------------------------------------------------------------------|
Bb|-------------------------------------------------------------------------|
_F|----------5\0-------5\0--------------7\0--------7\0----------------------|
_C|--4-6-4-6-------4-6----------4-6-4-6--------4-6--------------------------|

Now play a several times same part as in 0:27
 Eb|-----------------------------------------------------------------------------|
Bb|-----------------------------------------------------------------------------|
_F|-----------------------------------------------------------------------------|
_C|--4-4-4-6\0------4h6p4h6-6\0------4h6-6\0------4h6p4h6-6\0------4-4-4-4-6\0--|

Eb|-------------------------------------------------------------------|\
Bb|-------------------------------------------------------------------| \ *
_F|-------------------------------------------------------------------| /
_C|--4h6p4h6-6~-------4h6-6~-------4h6p4h6-6~-------4-4-4-4-6~--------|/

* Repeat & repeat & repeat...

Bridge II (4:18 - 5:13)

Eb|---------------------------------------------------------------------|\
Bb|----------------------------------3---3---3---3---3---3~~------------| \
_F|-4-4-4-4-4-4-4-4-4-4-4-4-4-4-4-4---3---3---3---3---3-----------------|  \
_C|---------------------------------------------------------------------|   \
                                                                         > 4x
Eb|---------------------------------------------------------------------|   /
Bb|----------------------------------3---3---3---3---3---3~~------------|  /
_F|-4-4-4-4-4-4-4-4-4-4-4-4-4-4-4-4---1---1---1---1---1-----------------| /
_C|---------------------------------------------------------------------|/

Bridge III (5:14 - end)

Eb|--------------------------------------------------------------------|\
Bb|---------------------------------4-4-4-4-4-4-4-4--------------------| \ 3x
_F|-4-4-4-4-4-4-4-4-3-3-3-3-3-3-3-3-----------------1-1-1-1-1-1-1-1----| /
_C|--------------------------------------------------------------------|/

Eb|---------------------------------------------------------------3\0--|
Bb|---------------------------------4-4-4-4-4-4-4-4--------------------|
_F|-4-4-4-4-4-4-4-4-3-3-3-3-3-3-3-3-----------------1-1-1-1-1-1-1------|
_C|--------------------------------------------------------------------|



If you've got any question or propositions, mail to me: jdanilko@gmail.com

            
            
Suggest correction
Creating personal tab
Creating personal tab
You can edit any tab online and save it as your Personal.

You can edit, replace or remove any tab part or add personal notes – all changes will be seen only by you.

Personal tabs can be accessed anytime from any device, even offline.
Learn more »
comments
print report bad tab
1 comment total.
0 reply
fgdsfgdsfgdsfdg 10 Jan 09, 2014 10:13 AM

bridge part is ****ed up

guest
You may want to rate the tab now too:
select rating
Wanna post a correction for this tab? Suggest correction