Oops, an error
Loading. Please wait.

Misfit Love tab

version 5
version 5

Whole song

Interactive

154 views 3 this week
no commentswrite comment
1 2 3 4 5
2 more votes to show rating
add to favorites
×
Save as Personal and add changes to this tab that will be seen only by you. Learn more ›
×
You can save this tab as Personal to edit and correct it or add notes. All changes will be seen only by you. Learn more »
launch autoscroll
font size
0
reset
how to read this tab
guitar tuner
edit
Autoscroll
slow
fast
+/-
esc
set tempo
stop
Author
Difficulty
About this tab version
Improvisation for the lead guitar recommended. Was this info helpful? Yes No
Guit.1: Josh's
Guit.2: Troy's (Note: When playing the intro, mute the notes after the 12th fret. It will make the sound 
similar to both the Live & Album version)
Guit.3: Dean's

[Intro]
Guit.2 (comes in after that long, annoying keyboard riff)
e|-----xxxx-|       |-----xxxxxxxx-|
B|-----xxxx-|       |-----xxxxxxxx-|
G|-----xxxx-|  X3   |-----xxxxxxxx-|
D|-----xxxx-|       |-----xxxxxxxx-|
A|-----xxxx-|       |-----xxxxxxxx-|
E|-///------|       |--///---------|


Guit.2
e|-----xxxxxxxx-|    |-----xxxx-|      |-----xxxxxxxx-|
B|-----xxxxxxxx-|    |-----xxxx-|      |-----xxxxxxxx-|
G|-----xxxxxxxx-|    |-----xxxx-| X2   |-----xxxxxxxx-|
D|-----xxxxxxxx-|    |-----xxxx-|      |-----xxxxxxxx-|
A|-----xxxxxxxx-|    |-----xxxx-|      |-----xxxxxxxx-|
E|--///---------|    |-///------|      |-///----------|


Guit.2
e|-----xxxxxxxx-|    |-----x-xxx-|   |-----xxxx-|   |-----xxxxxxxx-|
B|-----xxxxxxxx-|    |-----x-xxx-|   |-----xxxx-|   |-----xxxxxxxx-|
G|-----xxxxxxxx-|    |-----x-xxx-|   |-----xxxx-|   |-----xxxxxxxx-|
D|-----xxxxxxxx-|    |-----x-xxx-|   |-----xxxx-|   |-----xxxxxxxx-|
A|-----xxxxxxxx-|    |-----x-xxx-|   |-----xxxx-|   |-----xxxxxxxx-|
E|--///---------|    |-///-------|   |-///------|   |-///----------|


Guit.1
e|-----------------------------------|
B|-----------------------------------|
G|-----------------------------------|
D|-----------------------------------|
A|-1-1-1-1---1-1---1-1-1-1---1-1-1-1-|
E|-0-2-0-2---0-2---0-2-0-2---0-0-0-2-|

Guit.2
e|-----xxxxxxxx-|    |-----xxxx-|      |-----xxxxxxxx-|
B|-----xxxxxxxx-|    |-----xxxx-|      |-----xxxxxxxx-|
G|-----xxxxxxxx-|    |-----xxxx-| X2   |-----xxxxxxxx-|
D|-----xxxxxxxx-|    |-----xxxx-|      |-----xxxxxxxx-|
A|-----xxxxxxxx-|    |-----xxxx-|      |-----xxxxxxxx-|
E|--///---------|    |-///------|      |-///----------|


Guit.1
e|-----------------------------------|
B|-----------------------------------|
G|-----------------------------------|
D|-----------------------------------|
A|-1-1-1-1---1-1---1-1-1-1---1-1-1-1-|
E|-0-2-0-2---0-2---0-2-0-2---0-0-0-2-|
                                            X4
Guit.2 (rapidly)
e|--xxxxxxxxxxxx--|
B|-(xxxxxxxxxxxx)-|
G|----------------|
D|----------------|
A|----------------|
E|----------------|


Guit.1
e|-----------------------------------|
B|-----------------------------------|
G|-----------------------------------|
D|-----------------------------------|
A|-1-1-1-1---1-1---1-1-1-1---1-1-1-1-|
E|-0-2-0-2---0-2---0-2-0-2---0-0-0-2-|
                                            X4
Guit.2
e|----------17-(17)-|
B|-17b--17b---------|
G|-17b--17b---------|
D|-17b--17b---------|
A|------------------|
E|------------------|


Guit.1
e|-----------------------------------|
B|-----------------------------------|
G|-----------------------------------|
D|-----------------------------------|
A|-1-1-1-1---1-1---1-1-1-1---1-1-1-1-|
E|-0-2-0-2---0-2---0-2-0-2---0-0-0-2-|
                                            X4
Guit.2
e|-17||-|
B|-17||-|
G|-17||-|
D|-17||-|
A|------|
E|------|


Guit.1
e|-----------------------------------|
B|-----------------------------------|
G|-----------------------------------|
D|-----------------------------------|
A|-1-1-1-1---1-1---1-1-1-1---1-1-1-1-|
E|-0-2-0-2---0-2---0-2-0-2---0-0-0-2-|
                                            X2
Guit.2
e|-x-------------------------------------|
B|-x-------17----17----------17----17----|
G|-x-------17----17----------17----17----|
D|-x-14-16----16----16-14-16---16-----16-|
A|---14-16----16----16-14-16---16-----16-|
E|---------------------------------------|



[Verse 1]
Guit.1
Wanna see my passin' flames?
Don't waste a drop, baby, I ain't first
Where I was born, no escape
There ain't even no good bad drugs
In the city, is it true?
If you don't, you act like you do
Feast of fools, I can't wait
Give 'em a taste of my misfit love
Complicate
Incarcerate
Feel my heart wake up?
e|-----------------------------------|
B|-----------------------------------|
G|-----------------------------------|
D|-----------------------------------|
A|-1-1-1-1---1-1---1-1-1-1---1-1-1-1-|
E|-0-2-0-2---0-2---0-2-0-2---0-0-0-2-|
                                            R
Guit.2
e|-x-------------------------------------|
B|-x-------17----17----------17----17----|
G|-x-------17----17----------17----17----|
D|-x-14-16----16----16-14-16---16-----16-|
A|---14-16----16----16-14-16---16-----16-|
E|---------------------------------------|

[Chorus]
Both Guitars
Ain't born to lose baby,
e|-----------------|
B|-----------------|
G|-----------------|
D|-----------------|
A|-4-4-4-//8\-4//8-|
E|-0-2-0-//6\-0//6-|

I'm born to win,
e|------------------|
B|------------------|
G|------------------|
D|------------------|
A|-4-4-4-/10\-4//10-|
E|-0-2-0-//8\-0//8--|


Guit.1
I'm so goddamn slick baby, it's a sin,
It's a sin.
e|----------|    |-----|
B|----------|    |-----|
G|----------|    |-----| X4
D|----------|    |-----|
A|-1-1-1--1-|    |-1-1-|
E|-0-2-0--2-|    |-0-2-|
                                                  X2
Guit.2
e|-x-------------------------------------|
B|-x-------17----17----------17----17----|
G|-x-------17----17----------17----17----|
D|-x-14-16----16----16-14-16---16-----16-|
A|---14-16----16----16-14-16---16-----16-|
E|---------------------------------------|




Guit.1
It's a sin.
e|----------|    |-----|
B|----------|    |-----|
G|----------|    |-----| X4
D|----------|    |-----|
A|-1-1-1--1-|    |-1-1-|
E|-0-2-0--2-|    |-0-2-|
                                                  X2
Guit.2
e|-x-------------------------------------|
B|-x-------17----17----------17----17----|
G|-x-------17----17----------17----17----|
D|-x-14-16----16----16-14-16---16-----16-|
A|---14-16----16----16-14-16---16-----16-|
E|---------------------------------------|



[Bridge]
Guit.1
Transforming is becoming  x2
e|-----------------------------------|
B|-----------------------------------|
G|-----------------------------------|
D|-----------------------------------|
A|-1-1-1-1---1-1---1-1-1-1---1-1-1-1-|
E|-0-2-0-2---0-2---0-2-0-2---0-0-0-2-|
                                                   X4
Guit.2
e|----------------------------------------|
B|-14||||||||||||||||-13|||||||-10|||||||-|
G|----------------------------------------|
D|----------------------------------------|
A|----------------------------------------|
E|----------------------------------------|

[Interlude]
Guit.1
on me...
e|-----------------------------------|
B|-----------------------------------|
G|-----------------------------------|
D|-----------------------------------|
A|-1-1-1-1---1-1---1-1-1-1---1-1-1-1-|
E|-0-2-0-2---0-2---0-2-0-2---0-0-0-2-|
                                                   X2
Guit.2
e|-------------------------|
B|--------7~~--5~~---------|
G|-------------------5~/6~-|
D|-4/5\4~------------------|
A|-------------------------|
E|-------------------------|


Guit.1
e|-----------------------------------|
B|-----------------------------------|
G|-----------------------------------|
D|-----------------------------------|
A|-1-1-1-1---1-1---1-1-1-1---1-1-1-1-|
E|-0-2-0-2---0-2---0-2-0-2---0-0-0-2-|
                                                  
Guit.2
e|-------|
B|-------|
G|-------|
D|-------|
A|-7/9~~-|
E|-------|

[Verse 2]
Guit.1
Do me first, do your worst.
Gimmie what I want some of.
One track mind, no time to waste.
Sidewalks, feel me strut so good?
Gutter, don't forget this face,
Let 'em taste my misfit love.
I'll show you all my dirty tricks,
Then show 'em again,
I'm so proud of em.
It's cruel to be constantly,
Feel my heart play dumb.
e|-----------------------------------|
B|-----------------------------------|
G|-----------------------------------|
D|-----------------------------------|
A|-1-1-1-1---1-1---1-1-1-1---1-1-1-1-|
E|-0-2-0-2---0-2---0-2-0-2---0-0-0-2-|
                                            R
Guit.2
e|-x-------------------------------------|
B|-x-------17----17----------17----17----|
G|-x-------17----17----------17----17----|
D|-x-14-16----16----16-14-16---16-----16-|
A|---14-16----16----16-14-16---16-----16-|
E|---------------------------------------|


[Chorus]
Both Guitars
Ain't born to lose baby,
e|-----------------|
B|-----------------|
G|-----------------|
D|-----------------|
A|-4-4-4-//8\-4//8-|
E|-0-2-0-//6\-0//6-|

I'm born to win,
e|------------------|
B|------------------|
G|------------------|
D|------------------|
A|-4-4-4-/10\-4//10-|
E|-0-2-0-//8\-0//8--|

Guit.1
I'm so goddamn slick baby, it's a sin,
It's a sin.
e|----------|    |-----|
B|----------|    |-----|
G|----------|    |-----| X4
D|----------|    |-----|
A|-1-1-1--1-|    |-1-1-|
E|-0-2-0--2-|    |-0-2-|
                                            X2
Guit.2
e|-x-------------------------------------|
B|-x-------17----17----------17----17----|
G|-x-------17----17----------17----17----|
D|-x-14-16----16----16-14-16---16-----16-|
A|---14-16----16----16-14-16---16-----16-|
E|---------------------------------------|



Guit.1
It's a sin.
e|----------|    |-----|
B|----------|    |-----|
G|----------|    |-----| X4
D|----------|    |-----|
A|-1-1-1--1-|    |-1-1-|
E|-0-2-0--2-|    |-0-2-|
                                            X2
Guit.2
e|-x-------------------------------------|
B|-x-------17----17----------17----17----|
G|-x-------17----17----------17----17----|
D|-x-14-16----16----16-14-16---16-----16-|
A|---14-16----16----16-14-16---16-----16-|
E|---------------------------------------|


[Break]
Guit.1
e|-0-|  |-x-|  |-x-|  |-x-|  |-------------------------------|
B|-7-|  |-7-|  |-4-|  |-7-|  |-------------------------------|
G|-6-|  |-5-|  |-5-|  |-7-|  |-------------------------------|
D|-7-|  |-6-|  |-6-|  |-7-|  |-11----11----11----11---11br12-|
A|---|  |---|  |---|  |---|  |----9-----9-----9----9---------|
E|---|  |---|  |---|  |---|  |-------------------------------|

Guit.2
e|-------------------------|
B|--------7~~--5~~---------|
G|-------------------5~/6~-|   X2
D|-4/5\4~------------------|
A|-------------------------|
E|-------------------------|
                                                                        X2
Guit.3
e|----|  |----|  |----|  |----| 
B|-14-|  |-13-|  |----|  |----| 
G|--x-|  |--x-|  |-14-|  |-11-| 
D|-11-|  |-10-|  |--x-|  |--x-| 
A|----|  |----|  |-12-|  |--9-| 
E|----|  |----|  |----|  |----| 


Guit.1
Just a dead man, walking through the dead of night,
And if you are going anywhere tonight? Just a dead end,
Walking through the dead of night and if you are going,
Can I get a ride?
Just a dead man walking through the dead of night,
Its impossible to wait until the light,
e|-0-|  |-x-|  |-x-|  |-x-|  |-------------------------------|
B|-7-|  |-7-|  |-4-|  |-7-|  |-------------------------------|
G|-6-|  |-5-|  |-5-|  |-7-|  |-------------------------------|
D|-7-|  |-6-|  |-6-|  |-7-|  |-11----11----11----11---11br12-|
A|---|  |---|  |---|  |---|  |----9-----9-----9----9---------|
E|---|  |---|  |---|  |---|  |-------------------------------|
 
Guit.2
e|-------------------------|
B|--------7~~--5~~---------|
G|-------------------5~/6~-|  X2                                               X6
D|-4/5\4~------------------|
A|-------------------------|
E|-------------------------|

Guit.3
e|----|  |----|  |----|  |----| 
B|-14-|  |-13-|  |----|  |----| 
G|--x-|  |--x-|  |-14-|  |-11-| 
D|-11-|  |-10-|  |--x-|  |--x-| 
A|----|  |----|  |-12-|  |--9-| 
E|----|  |----|  |----|  |----| 

[Outro]
Guit.1
Cause, I'm already gone,
If you bet on me, you've won. X4
e|----|  |----|  |----|  |--9-|  
B|-14-|  |-13-|  |-19-|  |-10-|  
G|-13-|  |-12-|  |-19-|  |-11-|  
D|-14-|  |-13-|  |-19-|  |-11-|  
A|----|  |----|  |----|  |----|  
E|----|  |----|  |----|  |----|  

Guit.2
e|-------------------------|
B|--------7~~--5~~---------|
G|-------------------5~/6~-|                       X4
D|-4/5\4~------------------| 
A|-------------------------|
E|-------------------------|

Guit.3
e|----|  |----|  |----|  |----| 
B|-14-|  |-13-|  |----|  |----| 
G|--x-|  |--x-|  |-14-|  |-11-| 
D|-11-|  |-10-|  |--x-|  |--x-| 
A|----|  |----|  |-12-|  |--9-| 
E|----|  |----|  |----|  |----| 


Guit.1
e|--9-|  
B|-10-|  
G|-11-|  
D|-11-|  
A|----|  
E|----|  

Guit.2
e|---|
B|---|
G|-6-|                             
D|---|
A|---|
E|---|

Guit.3
e|----| 
B|----| 
G|-11-| 
D|--x-| 
A|--9-| 
E|----|



************************************

| x    Dead note
| /    Slide up
| (n)  Ghost note
| b    Bend
| \    Slide down
| ~    Vibrato
| br   Bend release 

************************************

            
            
Suggest correction
Creating personal tab
Creating personal tab
You can edit any tab online and save it as your Personal.

You can edit, replace or remove any tab part or add personal notes – all changes will be seen only by you.

Personal tabs can be accessed anytime from any device, even offline.
Learn more »
Give kudos to tab author, rate the tab!
1 2 3 4 5
comments
print report bad tab
guest
You may want to rate the tab now too:
select rating
Wanna post a correction for this tab? Suggest correction