Oops, an error
Loading. Please wait.

My God Is The Sun bass

version 1
version 1

Whole song

Interactive

30,903 views 33 this week
11 commentsread comments
1 2 3 4 5
x 26
add to favorites
×
Save as Personal and add changes to this tab that will be seen only by you. Learn more ›
×
You can save this tab as Personal to edit and correct it or add notes. All changes will be seen only by you. Learn more »
launch autoscroll
font size
0
reset
guitar tuner
backing track
0:00
0:00
edit
Autoscroll
slow
fast
+/-
esc
set tempo
stop
Author
This is my first tab ever.

 [Intro]
G|-------------------------------------------------|
D|-------------------------------------------------|
A|-------------------------------------------------|
E|--------0000--------0000--------0000----15/-0000-|

[Main Riff]
G|------------------------------------------------------------------------------------|
D|----5555--------------5555--------------5555----------9-8-777--7-9------------------|
A|--7------7----------7------7----------7------7---------------10---11x6-10x12--------|
E|-7---------7-0000-7----------7-0000-7----------7-0000-------------------------------|

 [Verse]
G|--------------------------------|
D|--------------------------------|X6
A|-------------6X6----------------|
E|-0X6-7X6-4X6--------------------|

 [Chorus]
G|---------------------------------|
D|---------------------------------|X4
A|-12X6-10X6-9X6-7X6---------------|
E|---------------------------------|

G|-------------------------------------------------|
D|-------------------------------------------------|
A|-------------------------------------------------|
E|--------15/-0--------15/-0--------15/-0----15/-0-|

G|---------------------------------------------------------------------------------|
D|----5555--------------5555--------------5555----------9-8-777--7-9---------------|
A|--7------7----------7------7----------7------7---------------10----11x6-10x12----|
E|-7---------7-0000-7----------7-0000-7----------7-0000----------------------------|

G|-------------------------|
D|-------------------------|
A|-------------------------|
E|---4X13----------4X13----|

 [Verse 2]
G|--------------------------------|
D|--------------------------------|X6
A|-7X6---------6X6----------------|
E|-----7X6-4X6--------------------|

[Breakdown 1]
G|-----7-----------------------5------------------------------------|
D|-------7h9-7h9-7h9-------------5h7-5h7-5h7------------------------|X4
A|--5x---------------9X12---3x---------------7X12-------------------|
E|------------------------------------------------------------------|

[Chorus Riff] X8

[Breakdown 2]
G|-----------------------------------------|
D|----1010----9----9-----------------------|X4
A|-12------10---10------1212----910--------|
E|-------------------14------12------------|

[Main Riff]
G|------------------------------------------------------------------------------------|
D|----5555--------------5555--------------5555----------9-8-777--7-9------------------|
A|--7------7----------7------7----------7------7---------------10---11x6-10x12--------|
E|-7---------7-0000-7----------7-0000-7----------7-0000-------------------------------|

That's it I'm pretty sure! Just listen to the song a bunch and you'll get it. Feel free 
to correct me if I'm wrong!

            
            
Suggest correction
Creating personal tab
Creating personal tab
You can edit any tab online and save it as your Personal.

You can edit, replace or remove any tab part or add personal notes – all changes will be seen only by you.

Personal tabs can be accessed anytime from any device, even offline.
Learn more »
comments
print report bad tab
11 comments total. Showing first comments.
+1 reply
TheInfrareds 137 Apr 18, 2013 10:49 AM

I think I was a bit off structure wise.. But just listen to the song, all the parts are there.

+3 reply
TheInfrareds 137 May 28, 2013 11:38 PM


Main Riff
G-------------------------------------------------------------------------|
D----5555--------------5555--------------5555----------98777---79---------|
A--7------7----------7------7----------7------7-------------9----10X6-9X12|
E-7---------7-0000-7----------7-0000-7----------7-0000--------------------|

0 reply
matenizer 10 Jun 02, 2013 09:10 AM

Isn't the verse just played consistently through, instead of using a palm-mute? Or is the X meant to be played through?

guest
You may want to rate the tab now too:
select rating
Wanna post a correction for this tab? Suggest correction