Oops, an error
Loading. Please wait.
We have an official My God Is The Sun tab made by UG professional guitarists. Check out the tab »
×

My God Is The Sun tab

version 5
version 5

Whole song

Interactive

283 views 15 this week
no commentswrite comment
1 2 3 4 5
3 more votes to show rating
add to favorites
×
Save as Personal and add changes to this tab that will be seen only by you. Learn more ›
×
You can save this tab as Personal to edit and correct it or add notes. All changes will be seen only by you. Learn more »
launch autoscroll
font size
0
reset
how to read this tab
guitar tuner
backing track
0:00
0:00
edit
Autoscroll
slow
fast
+/-
esc
set tempo
stop
Author
Difficulty
About this tab version
This is based on the Live version mostly. The hardest parts were Guitar 1's Chorus and Guitar 2's Break. The Chorus is based on the Acoustic versions and the Break is based on the Live version. Was this info helpful? Yes No
The worst decision is to ever make a tab out of this song. It is based on several Live videos. Also,
3 guitars is essential.
Guit.1: Josh's
Guit.2: Dean's
Guit.3: Troy's (12-string guitar, even though 6-string is not a big problem)


[Intro]

Guit.2
e|-------------------|
B|-------------------|
G|-----0|||----------|
D|---2------2--------|
A|-2----------2------|
E|--------------0|||-|(x4)
                                
Guit.1
e|-------------------|
B|-------------------|
G|-------------------|
D|-------------------|
A|-------------------|
E|--------------0|||-|

Guit.2
e|-------------------|
B|-------------------|
G|-----0|||----------|
D|---2------2--------|
A|-2----------2------|
E|--------------0|||-|(x3)
                               
Guit.1
e|-------------------|
B|---4-7|||-4-2-4|||-|
G|-2-----------------|
D|-------------------|
A|-------------------|
E|-------------------|

Guit.2
e|-------------------------------------|
B|-------------------------------------|
G|-------------------------------------|
D|-------------------------------------|
A|-------------------------------------|
E|-7-6-5|||-3-5-7-3|||||-2|||||||||||--|

Guit.1
e|--------------------------------------|
B|--------------------------------------|
G|--------------------------------------|
D|-----------------------4|||||-13|||||-|
A|-----------------------4|||||-13|||||-|
E|-7-6-5|||-3-5-7-3|||||-2|||||-11|||||-|


[Verse 1]

Guit.2 Only
Far beyond the desert road
where everything ends up
e|------------------------|
B|------------------------|
G|------------------------|     
D|------------------------|
A|------6|||-11|||-13|||--|
E|-0|||-------------------|(x2)

So good the empty space, mental erase
Forgive, forgot
e|-------------------------------------------------------|
B|-------------------------------------------------------|
G|-------------------------------------------------------|      
D|-------------------------------------------------------|
A|-14-13-11|||-13|||-6|||-11|||-9-11|||-13|||-6|||-11|||-|
E|-------------------------------------------------------|


[Chorus 1]

This is where it gets really hard. Guit.1's part was a pain in the butt
Guit.1
Heal them, bright fire from a gun
Kneeling, my god is the Sun
e|----------------------|
B|----------------------|
G|----------------------|
D|-----------5|||-------|
A|-2|||-----------------|
E|------3|||------0|||--|

Guit.2 
e|----------------------|
B|-2|||-3|||-4|||-5|||--|
G|----------------------|                   
D|----------------------|
A|----------------------|
E|----------------------|(x2)

Guit.3 
e|----------------------|
B|-2|||-3|||-4|||-5|||--|
G|----------------------|
D|----------------------|
A|----------------------|
E|----------------------|

Guit.1
Heal them, with fire from above
Kneeling, my god is the Sun
e|----------------------|
B|----------------------|
G|----------------------|
D|-----------5|||-------|
A|-2|||-----------------|
E|------3|||------0|||--|

Guit.2 
e|----------------------|
B|-2|||-3|||-4|||-5|||--|
G|----------------------|                      
D|----------------------|
A|----------------------|
E|----------------------|(x2)

Guit.3 
e|--------------------------|
B|-14|||-15|||-16|||-17|||--|
G|--------------------------|
D|--------------------------|
A|--------------------------|
E|--------------------------|


[Bridge]

Guit.1
e|-------------------|
B|-------------------|
G|-----0|||----------|        
D|---2------2--------|
A|-2----------2------|
E|--------------0|||-|(x4)

Guit.2 (After Guit.1's riff)
e|-------------------|
B|-------------------|
G|-0|||--------------|
D|------2----------2-|
A|--------2------2---|
E|----------0|||-----|
                                 
Guit.1
e|-------------------|
B|-7|||-4-2-4|||---4-|
G|---------------2---|
D|-------------------|
A|-------------------|
E|-------------------|

Guit.2
e|-------------------|
B|-------------------|
G|-----0|||----------|
D|---2------2--------|
A|-2----------2------|
E|--------------0|||-|(x2)
                                
Guit.1
e|-------------------|
B|---4-7|||-4-2-4|||-|
G|-2-----------------|
D|-------------------|
A|-------------------|
E|-------------------|

Guit.2
e|-------------------------------------|
B|-------------------------------------|
G|-------------------------------------|
D|-------------------------------------|
A|-------------------------------------|
E|-7-6-5|||-3-5-7-3|||||-2|||||||||||--|

Guit.1
e|--------------------------------------|
B|--------------------------------------|
G|--------------------------------------|
D|-----------------------4|||||||-------|
A|-----------------------4|||||||-------|
E|-7-6-5|||-3-5-7-3|||||-2|||||||-------|

Guit.1 & Guit.2 (after the maracas parts)
e|-----|
B|-----|
G|-----|
D|--6--|
A|--6--|
E|--4--|


[Verse 2]

Guit.2 Only
I don't know what time it was
I don't wear a watch
e|------------------------|
B|------------------------|
G|------------------------|      
D|------------------------|
A|------6|||-11|||-13|||--|
E|-0|||-------------------|(x2)

So good, to be ant, who crawls
atop a spinning rock
e|-------------------------------------------------------|
B|-------------------------------------------------------|
G|-------------------------------------------------------|      
D|-------------------------------------------------------|
A|-14-13-11|||-13|||-6|||-11|||-9-11|||-13|||-6|||-11|||-|
E|-------------------------------------------------------|


[Interlude]

(beyond...)
Guit.1 (remember that when play the second chord, don't strum down down, strum down up)
(palm-muted)

    D5             F#5
e|------|    |-------------|
B|------|    |-------------|
G|------|    |-------------|
D|--12--|    |---16|||||---|
A|--12--|    |---16|||||---|
E|--10--|    |---14|||||---|

(palm-muted)
    C5             E5
e|------|    |-------------|
B|------|    |-------------|
G|------|    |-------------|
D|--10--|    |---14|||||---|
A|--10--|    |---14|||||---|
E|--8---|    |---12|||||---|


[Chorus 1]

Guit.1
Heal them, bright fire from a gun
Kneeling, my god is the Sun
e|----------------------|
B|----------------------|
G|----------------------|
D|-----------5|||-------|
A|-2|||-----------------|
E|------3|||------0|||--|

Guit.2 
e|----------------------|
B|-2|||-3|||-4|||-5|||--|
G|----------------------|                 
D|----------------------|
A|----------------------|
E|----------------------|(x2)

Guit.3 
e|----------------------|
B|-2|||-3|||-4|||-5|||--|
G|----------------------|
D|----------------------|
A|----------------------|
E|----------------------|

Guit.1
Heal them, with fire from above
Kneeling, my god is the Sun
e|----------------------|
B|----------------------|
G|----------------------|
D|-----------5|||-------|
A|-2|||-----------------|
E|------3|||------0|||--|

Guit.2 
e|----------------------|
B|-2|||-3|||-4|||-5|||--|
G|----------------------|                     
D|----------------------|
A|----------------------|
E|----------------------|(x2)

Guit.3 
e|--------------------------|
B|-14|||-15|||-16|||-17|||--|
G|--------------------------|
D|--------------------------|
A|--------------------------|
E|--------------------------|


[Solo]

Guit.1 
e|---------------------------------|
B|-5-/7-5-/7\5---------------------|
G|------------4--4-3-2-2-4---------|       
D|-------------------------4/5\4-2-|
A|---------------------------------|
E|---------------------------------|

Guit.2 
e|----------------------|
B|-2|||-3|||-4|||-5|||--|
G|----------------------|                                        
D|----------------------|
A|----------------------|
E|----------------------|(x2)

Guit.3
e|---------------------------|
B|---------------------------|
G|---------------------------|                       
D|--11|||-12|||-13|||-14|||--|
A|---------------------------|
E|---------------------------|


Guit.1 
e|---------------------------------|
B|-5-/7-5-/7-8-\7\5----------------|
G|------------------4-3-2--4-2-4---|       
D|---------------------------------|
A|---------------------------------|
E|---------------------------------|

Guit.2 
e|----------------------|
B|-2|||-3|||-4|||-5|||--|
G|----------------------|                                               
D|----------------------|
A|----------------------|
E|----------------------|

Guit.3
e|----------------------------------|
B|----------------------------------|
G|----------------------------------|                       
D|-10|||||-9|||||-7|||-7/9\7-5|||||-|
A|----------------------------------|
E|----------------------------------|


Guit.1 
e|------------------------------------|
B|-5-/7-5-/7-8-\7\5--10-10br12-10b12--|
G|------------------------------------|       
D|------------------------------------|
A|------------------------------------|
E|------------------------------------|

Guit.2 
e|----------------------|
B|-2|||-3|||-4|||-5|||--|
G|----------------------|                                               
D|----------------------|
A|----------------------|
E|----------------------|

Guit.3
e|----------------------------------|
B|----------------------------------|
G|----------------------------------|                       
D|-10|||||-9|||||-7|||-7/9\7-5|||||-|
A|----------------------------------|
E|----------------------------------|


[Chorus 2]

Guit.1 
Heal them, bright fire from a gun
Kneeling, my god is the Sun
e|--------------------------------|
B|-5|||||-7|||||-10|||||-12|||||--|
G|--------------------------------|
D|--------------------------------|
A|--------------------------------|
E|--------------------------------|

Guit.2 
e|----------------------|
B|-2|||-3|||-4|||-5|||--|
G|----------------------|                         
D|----------------------|
A|----------------------|
E|----------------------|(x2)

Guit.3 
e|----------------------|
B|-2|||-3|||-4|||-5|||--|
G|----------------------|
D|----------------------|
A|----------------------|
E|----------------------|

See them kneeling?
Godless heathens
Guit.1
e|-----------------------------------------------------------------|
B|-14|||||-15|||||-16|||||-17|||||-19|||||-20|||||-22|||||-24|||||-|
G|-----------------------------------------------------------------|
D|-----------------------------------------------------------------|
A|-----------------------------------------------------------------|
E|-----------------------------------------------------------------|

Guit.2 
e|----------------------|
B|-2|||-3|||-4|||-5|||--|
G|----------------------|                       
D|----------------------|
A|----------------------|
E|----------------------|
                                                X2 (only for Guit.2 & 3)
Guit.3 
e|--------------------------|
B|-14|||-15|||-16|||-17|||--|
G|--------------------------|
D|--------------------------|
A|--------------------------|
E|--------------------------|


[Break]

A big pain for Guit.2 
Guit.1
e|---------------------------|
B|-5br7-5br7-----------------|
G|-----------4--4-3-2--2-4-2-|
D|---------------------------|
A|---------------------------|
E|---------------------------|

Guit.2
e|-----------------------------|
B|----1------------4-----------|
G|--2---2-4--0-2-4---4p2-0-4~--|
D|-----------------------------|
A|-----------------------------|
E|-----------------------------|

Guit.3 (play this part repeatedly through the Break)
e|-------------------------|
B|-----1-------------------|
G|---2-------0-----------0-|
D|-2---------------1---2---|
A|---------2-----2---------|
E|-------3-----2-----0-----|


Guit.1
e|---------------------------------|
B|-5b7~~~--------------------------|
G|-----------4--4-3-2-3-4----------|
D|------------------------4-4br5-2-|
A|---------------------------------|
E|---------------------------------|

Guit.2
e|------------------------------|
B|----1------------4--5-4-5-7b8-|
G|--2---2-4--0-2-4--------------|
D|------------------------------|
A|------------------------------|
E|------------------------------|

Guit.3 
e|-------------------------|
B|-----1-------------------|
G|---2-------0-----------0-|
D|-2---------------1---2---|
A|---------2-----2---------|
E|-------3-----2-----0-----|


Guit.1
Godless heathens 
e|------------------------|
B|----------------------5-|
G|------------------------|
D|-7-7br9-5-7br9-4-7br9---|
A|------------------------|
E|------------------------|

Guit.2
e|-------------------------------|
B|----1------------4-------------|
G|--2---2-4--0-2-4---4p2-0-4-----|
D|---------------------------5-2-|
A|-------------------------------|
E|-------------------------------|

Guit.3 
e|-------------------------|
B|-----1-------------------|
G|---2-------0-----------0-|
D|-2---------------1---2---|
A|---------2-----2---------|
E|-------3-----2-----0-----|


Guit.1 (bend the last part slowly)
always want from the sky...
e|---------------------------|
B|-5br7-7br8-5-10b12---------|
G|---------------------------|
D|---------------------------|
A|---------------------------|
E|---------------------------|

Guit.2
e|-----------------------------|
B|----1------------------------|
G|--2---2-4--4p2-0-4~----------|
D|-----------------------------|
A|-----------------------------|
E|-----------------------------|
                          (Both Guit.2 & Guit.3 let their final note/chord ring as long as possible)
Guit.3 
e|-------------------------|
B|-----1-------------------|
G|---2-------0-------------|
D|-2---------------1---1---|
A|---------2-----2-----2---|
E|-------3-----2-------2---|


[Outro]

All the Guitars
e|-------------------|
B|-------------------|
G|-----0|||----------|    
D|---2------2--------|
A|-2----------2------|
E|--------------0|||-|(x3)


e|-------------------|
B|-------------------|
G|-------------------|
D|-------------------|
A|-------------------|
E|-7-6-5|||-3-5-7-0--|


************************************

| x   Dead note
| g   Grace note
| (n) Ghost note
| h   Hammer-on
| p   Pull-off
| r   Release
| >   Accented note
| t   Tapping
| b   Bend
| br  Bend release
| pb  Pre-bend
| pbr Pre-bend release
| /   Slide up
| \   Slide down
| ~   Vibrato
| s   Slap
| P   Pop
| PM  Palm mute
| TR  Trill
| N   Tremolo

************************************

            
            
Suggest correction
Creating personal tab
Creating personal tab
You can edit any tab online and save it as your Personal.

You can edit, replace or remove any tab part or add personal notes – all changes will be seen only by you.

Personal tabs can be accessed anytime from any device, even offline.
Learn more »
Give kudos to tab author, rate the tab!
1 2 3 4 5
comments
print report bad tab
guest
You may want to rate the tab now too:
select rating
Wanna post a correction for this tab? Suggest correction