Oops, an error
Loading. Please wait.
We have an official No One Knows tab made by UG professional guitarists. Check out the tab »
×

No One Knows solo tab

version 1
version 1

Solo

  • For the few standard-tuning versions of this song ... Show more

Whole song

622 views 27 this week
no commentswrite comment
1 2 3 4 5
3 more votes to show rating
add to favorites
×
Save as Personal and add changes to this tab that will be seen only by you. Learn more ›
×
You can save this tab as Personal to edit and correct it or add notes. All changes will be seen only by you. Learn more »
launch autoscroll
font size
0
reset
how to read this tab
guitar tuner
backing track
0:00
0:00
edit
Autoscroll
slow
fast
+/-
esc
set tempo
stop
Author
Difficulty
About this tab version
For the few standard-tuning versions of this song that there are, none of them have the correct solo tabbed. Most skip it all together. This is definitely correct, playing in the standard key of C. Was this info helpful? Yes No
This is the part immediately after the 1-measure bass solo that follows the second chorus.

I couldn't find a correct standard-version tuning anywhere, so I made one.

   C                                      C
e|----------------------------------------------------------|
B|----------------------------------------------------------|
G|----------------------10-12-12-12-12-12-12~~--------------|
D|-10-10-12-12-12-13-13-------------------------------------|
A|----------------------------------------------------------|
E|----------------------------------------------------------|

            C           F           G
e|----------------------------------------------------------|
B|-13b13-11-11-15b15-11-11-13b13-11-------------------------|
G|----------------------------------10-12~~-----------------|
D|----------------------------------------------------------|
A|----------------------------------------------------------|
E|----------------------------------------------------------|

              C                 C
e|----------------------------------------------------------|
B|--------------=-------------------------------------------|
G|-12h13p12---10~~--10h12p10-9~~--7h8p7-5-7~~---------------|
D|----------------------------------------------------------|
A|----------------------------------------------------------|
E|----------------------------------------------------------|

   C         F       G     C         C
e|----------------------6~~-------6~~-------6~~-6-----------|
B|-----------8~~-- -4-8-------4-8-------4-8-----------------|
G|-7h8p7-5-7-----5---------5---------5----------------------|
D|----------------------------------------------------------|
A|----------------------------------------------------------|
E|----------------------------------------------------------|

   C      F     C      G     C      F     C      G
e|-10-8-6-8-----10-8-6-8-----10-8-6-8-----10-8-6-8-----8----|
B|----------6-8----------6-8----------6-8----------6-8-8----|
G|----------------------------------------------------------|
D|----------------------------------------------------------|
A|----------------------------------------------------------|
E|----------------------------------------------------------|

***********************************
| h   Hummer-on
| p   Pull-off
| b   Bend
***********************************
Suggest correction
Creating personal tab
Creating personal tab
You can edit any tab online and save it as your Personal.

You can edit, replace or remove any tab part or add personal notes – all changes will be seen only by you.

Personal tabs can be accessed anytime from any device, even offline.
Learn more »
Give kudos to tab author, rate the tab!
1 2 3 4 5
comments
print report bad tab
guest
You may want to rate the tab now too:
select rating
Wanna post a correction for this tab? Suggest correction