Oops, an error
Loading. Please wait.
We have an official No One Knows tab made by UG professional guitarists. Check out the tab »
×

No One Knows tab

469 views 12 this week
no commentswrite comment
1 2 3 4 5
3 more votes to show rating
add to favorites
×
Save as Personal and add changes to this tab that will be seen only by you. Learn more ›
×
You can save this tab as Personal to edit and correct it or add notes. All changes will be seen only by you. Learn more »
launch autoscroll
font size
0
reset
how to read this tab
guitar tuner
backing track
0:00
0:00
edit
Autoscroll
slow
fast
+/-
esc
set tempo
stop
About this tab version
It's majorly based on the recent Live versions that they play in the ...Like Clockwork tour and some improvisation of the band. There're maybe many tabs for this song, but this version has a dual solo (not as good as Song For The Dead) and patterns of the strummings. Was this info helpful? Yes No
This is the most recognizable of QOTSA & need almost just 1 guitar to go through the song. But that
will ruin the distinctive sound of the band: thick & crunchy. So, there will be 2 guitars involved.
Also, this is the Live-Casual version, so the Solo might be a bit different for both guitars
Guit.1: Josh's
Guit.2: Troy's



[Intro]

Both Guitars
C |-12-|
G |--8-|
D#|--x-|  X4
A#|--9-|
F |--7-|
C |----|


Guit.1
C |---------------------------------|
G |-------10-10--8--8---10-10--8--8-|
D#|--------x--x--x--9----x--x--x--9-|   X2
A#|--------9--9--9--9----9--9--9--9-|
F |--------7--7--7--7----7--7--7--7-|
C |-12\\-0--------------------------|


Guit.1 (Note: that bend is down, not up)
C |---------------------------------|
G |-------10-10--8--8---10-10br12---|
D#|--------x--x--x--9----x--x-------|   
A#|--------9--9--9--9----9--9-------|
F |--------7--7--7--7----7--7-------|
C |-12\\-0--------------------------|


Guit.1
C |------------------------7--|
G |-------10-10--8--8------7--|
D#|--------x--x--x--9--0--(7)-|   
A#|--------9--9--9--9---------|
F |--------7--7--7--7---------|
C |-12\\-0--------------------|





[Verse 1]

Guit.1
We get some rules to follow
That and this, these and those
C |------------------------|       |-----------------------|
G |---8---8---8---8-0-8--8-|       |---8---8---8---8-0-8-0-|
D#|---x---x---x---x-0-x--x-| X3    |---x---x---x---x-0-x-0-|   
A#|---9---9---9---9-0-9--9-|       |---9---9---9---9-0-9-0-|
F |---7---7---7---7-0-7--7-|       |---7---7---7---7-0-7-0-|
C |-0---0---0---0----------|       |-0---0---0---0---------|


Guit.1 (Note: the strumming pattern at the 1st part has some space, while the 2nd is rapidly strumming)
C |-----|      |------|
G |-----|      |------|
D#|-8-8-| X3   |-8|||-|
A#|-x-x-|      |-x|||-|
F |-9-9-|      |-9|||-|
C |-7-7-|      |-7|||-|


Guit.1

C |-----|      |--------|
G |-8-8-|      |-8||(|)-|
D#|-8-8-| X3   |-8||(|)-|
A#|-x-x-|      |-x||(|)-|
F |-6-6-|      |-6||(|)-|
C |-----|      |--------|


Guit.1
C |---------------------------------|    |--------------------7---0--|
G |-------10-10--8--8---10-10--8--8-|    |-------10-10--8--8--7---0--|
D#|--------x--x--x--9----x--x--x--9-|    |--------x--x--x--9-(7)-(0)-|
A#|--------9--9--9--9----9--9--9--9-|    |--------9--9--9--9---------|
F |--------7--7--7--7----7--7--7--7-|    |--------7--7--7--7---------|
C |-12\\-0--------------------------|    |-12\\-0--------------------|


[Verse 2]

Guit.1
We get these pills to swallow
How they stick in your throat
C |------------------------|       |-----------------------|
G |---8---8---8---8-0-8--8-|       |---8---8---8---8-0-8-0-|
D#|---x---x---x---x-0-x--x-| X3    |---x---x---x---x-0-x-0-|   
A#|---9---9---9---9-0-9--9-|       |---9---9---9---9-0-9-0-|
F |---7---7---7---7-0-7--7-|       |---7---7---7---7-0-7-0-|
C |-0---0---0---0----------|       |-0---0---0---0---------|


Guit.1 
C |-----|      |------|
G |-----|      |------|
D#|-8-8-| X3   |-8|||-|
A#|-x-x-|      |-x|||-|
F |-9-9-|      |-9|||-|
C |-7-7-|      |-7|||-|


Guit.1
Taste like gold
C |-----|      |--------|
G |-8-8-|      |-8||(|)-|
D#|-8-8-| X3   |-8||(|)-|
A#|-x-x-|      |-x||(|)-|
F |-6-6-|      |-6||(|)-|
C |-----|      |--------|


Guit.1
C |----------------------------------------------|    |----------------------------|  |----|
G |-------10-10--8--8---10-10--(8)---------------|    |--10-10--8--8---10-10--8--8-|  |-xx-|
D#|--------x--x--x--9----x--x--(x)---------------|    |---x--x--x--9----x--x--x--9-|  |-xx-|
A#|--------9--9--9--9----9--9--(9)---------------|    |---9--9--9--9----9--9--9--9-|  |-xx-|
F |--------7--7--7--7----7--7--(7)-----5h7p5-----|    |---7--7--7--7----7--7--7--7-|  |-xx-|
C |-12\\-0-------------------------5h7-------7-5-|    |-0--------------------------|  |----|


Guit.1 
Oh what you do to me
C |-----|      |------|
G |-----|      |------|
D#|-8-8-| X3   |-8|||-|
A#|-x-x-|      |-x|||-|
F |-9-9-|      |-9|||-|
C |-7-7-|      |-7|||-|


C |-----|      |--------|
G |-8-8-|      |-8||(|)-|
D#|-8-8-| X3   |-8||(|)-|
A#|-x-x-|      |-x||(|)-|
F |-6-6-|      |-6||(|)-|
C |-----|      |--------|


Guit.1
C |-------------------------------------12---|    |----------------------------|  
G |-------10-10--8--8---10-10--8--10b12------|    |--10-10--8--8---10-10--8--8-|  
D#|--------x--x--x--9----x--x--x-----------9-|    |---x--x--x--9----x--x--x--9-|  
A#|--------9--9--9--9----9--9--9-------------|    |---9--9--9--9----9--9--9--9-|  
F |--------7--7--7--7----7--7--7-------------|    |---7--7--7--7----7--7--7--7-|  
C |-12\\-0-----------------------------------|    |-0--------------------------| 


[Chorus](Note: 2nd guitar shines in this because of the effect pedal, so 1st guitar can maybe relax a bit)

Both Guitars
I realize you’re mine
Indeed a fool am I
C |------------------------------|
G |------------------------------|
D#|--9-11--12-11--14--12--16--14-|
A#|--x--x---x--x---x---x---x---x-|
F |--7--9--10--9--12--10--14--12-|
C |------------------------------|
                                             X2
C |-------|
G |-------|
D#|-------|  X8
A#|-9-(0)-|
F |-9-(0)-|
C |-7-(0)-|


Both Guitars
I realize you’re mine
C |-------------------------|
G |-------------------------|
D#|-12-11--9--8--9-11-12-11-|
A#|--x--x--x--x--x--x--x--x-|
F |-10--9--7--6--7--9-10--9-|
C |-------------------------|
                                             
C |-------|
G |-------|
D#|-------|  X8
A#|-9-(0)-|
F |-9-(0)-|
C |-7-(0)-|


Both Guitars
Indeed a fool am I
C |------------------------------|
G |------------------------------|
D#|--9-11--12-11--14--12--16--14-|
A#|--x--x---x--x---x---x---x---x-|
F |--7--9--10--9--12--10--14--12-|
C |------------------------------|
                                            
C |-------|
G |-------|
D#|-------|  X8
A#|-9-(0)-|
F |-9-(0)-|
C |-7-(0)-|


[Verse 3]

Guit.1
I journey through the desert
Of the mind with no hope
C |------------------------|       |-----------------------|
G |---8---8---8---8-0-8--8-|       |---8---8---8---8-0-8-0-|
D#|---x---x---x---x-0-x--x-| X3    |---x---x---x---x-0-x-0-|   
A#|---9---9---9---9-0-9--9-|       |---9---9---9---9-0-9-0-|
F |---7---7---7---7-0-7--7-|       |---7---7---7---7-0-7-0-|
C |-0---0---0---0----------|       |-0---0---0---0---------|
                                                                
Guit.2 
C |---------------|
G |-12~--10~--8~--|
D#|---------------|  X2
A#|---------------|
F |---------------|
C |---------------|


Guit.1 
C |-----|      |------|
G |-----|      |------|
D#|-8-8-| X3   |-8|||-|
A#|-x-x-|      |-x|||-|
F |-9-9-|      |-9|||-|
C |-7-7-|      |-7|||-|

Guit.2 
C |---------------|
G |--3/4~~--------|
D#|---------------|  
A#|---------------|
F |---------------|
C |---------------|


Guit.1
I follow
C |-----|      |--------|
G |-8-8-|      |-8||(|)-|
D#|-8-8-| X3   |-8||(|)-|
A#|-x-x-|      |-x||(|)-|
F |-6-6-|      |-6||(|)-|
C |-----|      |--------|


Guit.1 (Note: that strum at the end of part 2 over there means strumming at the fret board)
C |----------------------------------------------|    |------------------!2-|  
G |-------10-10--8--8---10-10--(8)---------------|    |--10-10--8--8-(0)-!2-|  
D#|--------x--x--x--9----x--x--(x)---------------|    |---x--x--x--9--0--!2-| 
A#|--------9--9--9--9----9--9--(9)---------------|    |---9--9--9--9-----!2-|  
F |--------7--7--7--7----7--7--(7)-----5h7p5-----|    |---7--7--7--7--------| 
C |-12\\-0-------------------------5h7-------7-5-|    |-0-------------------|


[Verse 4]

Guit.1
I drift along the ocean
Dead lifeboat in the sun
C |------------------------|       |-----------------------|
G |---8---8---8---8-0-8--8-|       |---8---8---8---8-0-8-0-|
D#|---x---x---x---x-0-x--x-| X3    |---x---x---x---x-0-x-0-|   
A#|---9---9---9---9-0-9--9-|       |---9---9---9---9-0-9-0-|
F |---7---7---7---7-0-7--7-|       |---7---7---7---7-0-7-0-|
C |-0---0---0---0----------|       |-0---0---0---0---------|


Guit.1 
C |-----|      |------|
G |-----|      |------|
D#|-8-8-| X3   |-8|||-|
A#|-x-x-|      |-x|||-|
F |-9-9-|      |-9|||-|
C |-7-7-|      |-7|||-|


Guit.1
And come undone
C |-----|      |--------|
G |-8-8-|      |-8||(|)-|
D#|-8-8-| X3   |-8||(|)-|
A#|-x-x-|      |-x||(|)-|
F |-6-6-|      |-6||(|)-|
C |-----|      |--------|


Guit.1
C |---------------------------------|      |----|
G |-------10-10--8--8---10-10--8--8-|      |-xx-|
D#|--------x--x--x--9----x--x--x--9-| X2   |-xx-|
A#|--------9--9--9--9----9--9--9--9-|      |-xx-|
F |--------7--7--7--7----7--7--7--7-|      |-xx-|
C |-12\\-0--------------------------|      |----|


Guit.1 
Pleasantly caving in
C |-----|      |------|
G |-----|      |------|
D#|-8-8-| X3   |-8|||-|
A#|-x-x-|      |-x|||-|
F |-9-9-|      |-9|||-|
C |-7-7-|      |-7|||-|

I come undone
C |-----|      |--------|
G |-8-8-|      |-8||(|)-|
D#|-8-8-| X3   |-8||(|)-|
A#|-x-x-|      |-x||(|)-|
F |-6-6-|      |-6||(|)-|
C |-----|      |--------|


Guit.1
C |-------------------------------------12---|    |----------------------------|  
G |-------10-10--8--8---10-10--8--10b12------|    |--10-10--8--8---10-10--8--8-|  
D#|--------x--x--x--9----x--x--x-----------9-|    |---x--x--x--9----x--x--x--9-|  
A#|--------9--9--9--9----9--9--9-------------|    |---9--9--9--9----9--9--9--9-|  
F |--------7--7--7--7----7--7--7-------------|    |---7--7--7--7----7--7--7--7-|  
C |-12\\-0-----------------------------------|    |-0--------------------------| 


[Chorus]

Both Guitars
I realize you’re mine
Indeed a fool am I
C |------------------------------|
G |------------------------------|
D#|--9-11--12-11--14--12--16--14-|
A#|--x--x---x--x---x---x---x---x-|
F |--7--9--10--9--12--10--14--12-|
C |------------------------------|
                                             X2
C |-------|
G |-------|
D#|-------|  X8
A#|-9-(0)-|
F |-9-(0)-|
C |-7-(0)-|


Both Guitars
I realize you’re mine
C |-------------------------|
G |-------------------------|
D#|-12-11--9--8--9-11-12-11-|
A#|--x--x--x--x--x--x--x--x-|
F |-10--9--7--6--7--9-10--9-|
C |-------------------------|
                                             
C |-------|
G |-------|
D#|-------|  X8
A#|-9-(0)-|
F |-9-(0)-|
C |-7-(0)-|


Both Guitars
Indeed a fool am I
C |------------------------------|
G |------------------------------|
D#|--9-11--12-11--14--12--16--14-|
A#|--x--x---x--x---x---x---x---x-|
F |--7--9--10--9--12--10--14--12-|
C |------------------------------|
                                            
C |-------|
G |-------|
D#|-------|  X8
A#|-9-(0)-|
F |-9-(0)-|
C |-7-(0)-|


[Break] (the 2nd most epic part of the song)

Both Guitars
C |----|  |----------|     |---------|    |------------------|
G |----|  |----------|     |---------|    |------------------|
D#|----|  |----------| X5  |---------|    |------------------|
A#|-14-|  |-(x)-14||-|     |-(x)-14|-|    |-9-10--8--9--7--9-|
F |-14-|  |-(x)-14||-|     |-(x)-14|-|    |-9-10--8--9--7--9-|
C |-12-|  |-(x)-12||-|     |-(x)-12|-|    |-7--8--6--7--5--7-|


Both Guitars
C |----|  |----------|     |---------|    |------------------|     |----|
G |----|  |----------|     |---------|    |------------------|     |----|
D#|----|  |----------| X5  |---------|    |------------------| X4  |----|
A#|-14-|  |-(x)-14||-|     |-(x)-14|-|    |-9-10--8--9--7--9-|     |-14-|
F |-14-|  |-(x)-14||-|     |-(x)-14|-|    |-9-10--8--9--7--9-|     |-14-|
C |-12-|  |-(x)-12||-|     |-(x)-12|-|    |-7--8--6--7--5--7-|     |-12-|


[Bridge] (this is the bass solo, so none of the Guitars are needed to play, except the bass & the upcoming
dual solo, technically)

[Solo]

Guit.1
C |--0---0---0---0------------------------------------------------------|
G |-5/7-7/8-8/10-10-//12~~--12-//17|~-\\15|~-//19|~-\\15|~-15/19\15-15~-|
D#|---------------------------------------------------------------------|
A#|---------------------------------------------------------------------|
F |---------------------------------------------------------------------|
C |---------------------------------------------------------------------|

Guit.2 (the 2nd just repeat the 2nd part until the next part of Guit.1's solo continutes)
C |---|  |----|
G |---|  |----|
D#|---|  |----| R
A#|---|  |----|
F |-7-|  |-7|-|
C |---|  |----|


Guit.1
C |-------------------------------------------------|
G |-17p15-12-15b17|||-15p12h10-12p10h8-10p8h7-8p7h5-|
D#|-------------------------------------------------|
A#|-------------------------------------------------|
F |-------------------------------------------------|
C |-------------------------------------------------|

Guit.2 
C |---|  |----|
G |---|  |----|
D#|---|  |----| R
A#|---|  |----|
F |-7-|  |-7|-|
C |---|  |----|


Guit.1
C |------------|
G |---8-12-b15-|
D#|-9----------|
A#|------------|
F |------------|
C |------------|
                         X3
Guit.2
C |------------|
G |------------|
D#|------------|
A#|---5-9-b12--|
F |-7----------|
C |------------|


Guit.1 (bend & pick the G string, too)
C |-14p12-------------|     |-17b19-|
G |-------10h12p10----|     |-------|
D#|----------------12-| X4  |-------|
A#|-------------------|     |-------|
F |-------------------|     |-------|
C |-------------------|     |-------|
 
Guit.2
C |---------------|     |-------|
G |---------------|     |-------|
D#|-11p9----------| X4  |-14b16-|
A#|------7h9p7----|     |-------|
F |------------10-|     |-------|
C |---------------|     |-------|

[Verse 5]
Guit.1 (strum on the fret board)
Heaven smiles above me
C |-!2-|
G |-!2-|
D#|-!2-|  
A#|-!2-|  
F |----|  
C |----|  


Guit.1
What a gift here below
C |------------------------|  |-----------------------|
G |---8---8---8---8-0-8--8-|  |---8---8---8---8-0-8-0-|
D#|---x---x---x---x-0-x--x-|  |---x---x---x---x-0-x-0-|   
A#|---9---9---9---9-0-9--9-|  |---9---9---9---9-0-9-0-|
F |---7---7---7---7-0-7--7-|  |---7---7---7---7-0-7-0-|
C |-0---0---0---0----------|  |-0---0---0---0---------|


Guit.1 
C |-----|      |------|
G |-----|      |------|
D#|-8-8-| X3   |-8|||-|
A#|-x-x-|      |-x|||-|
F |-9-9-|      |-9|||-|
C |-7-7-|      |-7|||-|

Guit.2 
C |---------------|
G |--3/4~~--------|
D#|---------------| 
A#|---------------|
F |---------------|
C |---------------|


Guit.1
But 
C |-----|      |------|
G |-8-8-|      |-8|||-|
D#|-8-8-| X3   |-8|||-|
A#|-x-x-|      |-x|||-|
F |-6-6-|      |-6|||-|
C |-----|      |------|


Guit.1
C |-----------------------------7-|    |----------------------------|  |----|  
G |-10-10--8--8---10-10--8--8---7-|    |--10-10--8--8---10-10--8--8-|  |-xx-|
D#|--x--x--x--9----x--x--x--9---7-|    |---x--x--x--9----x--x--x--9-|  |-xx-|
A#|--9--9--9--9----9--9--9--9-----|    |---9--9--9--9----9--9--9--9-|  |-xx-|
F |--7--7--7--7----7--7--7--7-----|    |---7--7--7--7----7--7--7--7-|  |-xx-|
C |-------------------------------|    |----------------------------|  |----|

Guit.2 (strum following the rhymth from the Riff above)
C |---------|
G |---------|
D#|-9-9-9-9-|  X2
A#|-9-9-9-9-|
F |-7-7-7-7-|
C |---------|


[Outro]

Both Guitars (PM)
The gift that you give to me
C |-----|      |------|
G |-----|      |------|
D#|-8-8-| X3   |-8|||-|
A#|-x-x-|      |-x|||-|
F |-9-9-|      |-9|||-|
C |-7-7-|      |-7|||-|

PM
C |-----|      |------|
G |-8-8-|      |-8|||-|
D#|-8-8-| X3   |-8|||-|
A#|-x-x-|      |-x|||-|
F |-6-6-|      |-6|||-|
C |-----|      |------|


C |-12-|
G |--8-|
D#|--x-|  X5
A#|--9-|
F |--7-|
C |----|


************************************

| x   Dead note
| g   Grace note
| (n) Ghost note
| h   Hammer-on
| p   Pull-off
| r   Release
| >   Accented note
| t   Tapping
| b   Bend
| br  Bend release
| pb  Pre-bend
| pbr Pre-bend release
| /   Slide up
| \   Slide down
| ~   Vibrato
| s   Slap
| P   Pop
| PM  Palm mute
| TR  Trill
| N   Tremolo

************************************

            
            
Suggest correction
Creating personal tab
Creating personal tab
You can edit any tab online and save it as your Personal.

You can edit, replace or remove any tab part or add personal notes – all changes will be seen only by you.

Personal tabs can be accessed anytime from any device, even offline.
Learn more »
Give kudos to tab author, rate the tab!
1 2 3 4 5
comments
print report bad tab
guest
You may want to rate the tab now too:
select rating
Wanna post a correction for this tab? Suggest correction