Oops, an error
Loading. Please wait.

No One Knows Bass Tab

version 6
60,191 views 225 this week
2 commentsread comments
1 2 3 4 5
x 30
add to favorites
launch autoscroll
font size
0
reset
guitar tuner
×
Best way to learn
"No One Knows"
Autoscroll
slow
fast
+/-
esc
set tempo
stop
Author
Tuning
Band: Queens of the Stone Age
Song: No One Knows
Album: Songs for the Deaf (2002)
Bassist: Nick Oliveri
Tuning: C tuning

Note:
I made this tab based on the bass master track of the song, so you can be
completely sure that this tab is 100% correct.

You can hear the bass master track here:
goear.com/listen/c153e0b/no-one-knows-bass-track-queens-of-the-stone-age


[Intro]

D#|----------------|
A#|----------------|
F |-7--7--7--7-----|
C |------------12\-|

D#|-------------------|------------------|-------------------|
A#|-------------------|------------------|-------------------|
F |---7---7---7-------|---7---7---7------|---7---7---7-------|
C |-0---0---0---0-12\-|-0---0---0---0-7/-|-0---0---0---7/12\-|
  |
D#|------------------|
A#|----------------5-|
F |---7---7------5---|
C |-0---0---55-7-----|


[Verse 1]

D#|-----------------------|
A#|---------------5h7p5---|
F |---7---7---7---------7-|
C |-0---0---0---0---------|

D#|---------------------|
A#|---------------5h7p5-| x2
F |---7---7---7---------|
C |-0---0---0---0-------|

D#|------------------|
A#|----------------5-|
F |---7---7------5---|
C |-0---0---55-7-----|

D#|------------------------------------|
A#|------------------------------------|
F |--------------------6-6-6-6-6-5-6-5-|
C |-7-7-7-7-7-7-7-77-7-----------------|

D#|-------------------|------------------|
A#|-------------------|----------------5-|
F |---7---7---7-------|---7---7------5---|
C |-0---0---0---0-12\-|-0---0---55-7-----|

D#|-----------------------|
A#|---------------5h7p5---|
F |---7---7---7---------7-|
C |-0---0---0---0---------|

D#|---------------------|
A#|---------------5h7p5-| x2
F |---7---7---7---------|
C |-0---0---0---0-------|

D#|-----------------------|
A#|-----------7h9-7-------|
F |---7---7---------7h9-7-|
C |-0---0---5-------------|

D#|-------------------------------------|
A#|-------------------------------------|
F |---------------------6-6-6-6-6-5-6-5-|
C |-7-7-7-7-7-7-7-5-7-5-----------------|

D#|-------------------|-----------------------|
A#|-------------------|-----------7h9-7-------|
F |---7---7---7-------|---7---7---------7h9-7-|
C |-0---0---0---0-12\-|-0---0---5-------------|

D#|------------------------------------|
A#|------------------------------------|
F |--------------------6-6-6-6-6-5-6-5-|
C |-7-7-7-7-7-7-7-77-7-----------------|

D#|-------------------|-----------------|
A#|-------------------|-----------------|
F |---7---7---7-------|---7---7---7---7-|
C |-0---0---0---0-12\-|-0---0---0---0---|


[Chorus]

D#|--------------------------------------|
A#|--------------------------------------|
F |---7---9---10---9---12---10---14---12-|
C |-0---0---0----0---0----0----0----0----|

D#|------------------------|
A#|------------------------|
F |------------------------|
C |-7-77-77-77-77-77-77-77-|

D#|-------------------------------------|
A#|-------------------------------------|
F |---7---9---10---9---12-10-9-14-12-10-|
C |-0---0---0----0---0------------------|

D#|-------------------------|
A#|-------------------------|
F |-------------------------|
C |-7-77-77-77-77-77-77-77/-|

D#|---------------------------------------|
A#|---------------------------------------|
F |---------------------------------------|
C |-12-12121212-10-10101010-12-10-7-5-3-2-|

D#|-------------------------|
A#|-------------------------|
F |-------------------------|
C |-7-77-77-77-77-77-77-77/-|

D#|--------------------------------|
A#|--------------------------------|
F |--------------------------------|
C |-12-12-12-14-14-14-15-15-15-17\-|

D#|------------------------|
A#|------------------------|
F |------------------------|
C |-7-77-77-77-77-77-77-77-|

D#|-------------------|------------------|
A#|-------------------|----------------5-|
F |---7---7---7-------|---7---7------5---|
C |-0---0---0---0-12\-|-0---0---55-7-----|


[Verse 2]

D#|-----------------------|
A#|---------------5h7p5---| x3
F |---7---7---7---------7-|
C |-0---0---0---0---------|

D#|-----------------------|
A#|-----------7h9-7-------|
F |---7---7---------7h9-7-|
C |-0---0---5-------------|

D#|------------------------------------|
A#|------------------------------------|
F |--------------------6-6-6-6-6-5-6-5-|
C |-7-7-7-7-7-7-7-77-7-----------------|

D#|-------------------|------------------|
A#|-------------------|----------------5-|
F |---7---7---7-------|---7---7------5---|
C |-0---0---0---0-12\-|-0---0---55-7-----|

D#|-----------------------|
A#|---------------5h7p5---| x3
F |---7---7---7---------7-|
C |-0---0---0---0---------|

D#|-----------------------|
A#|-----------5h7h5-7h9-7-|
F |---7---7---------------|
C |-0---0---5-------------|

D#|---------------------------7h9-7-------|
A#|-----------9-7-------------------7h9-7-|
F |---------------9-6-6-6-6-6-------------|
C |-7-7-7-7-7-----------------------------|

D#|-------------------|------------------|
A#|-------------------|----------------5-|
F |---7---7---7-------|---7---7------5---|
C |-0---0---0---0-12\-|-0---0---55-7-----|

D#|------------------------------------|
A#|------------------------------------|
F |--------------------6-6-6-6-6-5-6-5-|
C |-7-7-7-7-7-7-7-77-7-----------------|

D#|-------------------|-------------------|
A#|-------------------|----------------55-|
F |---7---7---7-------|---7---7------5----|
C |-0---0---0---0-12\-|-0---0---55-7------|


[Chorus]

D#|--------------------------------------|
A#|--------------------------------------|
F |---7---9---10---9---12---10---14---12-|
C |-0---0---0----0---0----0----0----0----|

D#|----------------------------|
A#|---------------9-9999-7-----|
F |------------------------9---|
C |-77-77-77-77-7------------7-|

D#|--------------------------------------|
A#|--------------------------------------|
F |---7---9---10---9---12---10---14---12-|
C |-0---0---0----0---0----0----0----0----|

D#|---------------------------------|
A#|---------------9-9999-----5-9\---|
F |----------------------5-7--------|
C |-77-77-77-77-7-----------------7-|

D#|----------------------------|
A#|----------------------------|
F |-7-7777-9-9999-10-9-7-5-----|
C |------------------------7-5-|

D#|-------------------------|
A#|-------------------------|
F |-------------------------|
C |-7-77-77-77-77-77-77-77/-|

D#|----------------------|
A#|----------------------|
F |-7--5-------5h7-5-----|
C |-------5h7--------7-5-|

D#|------------------------|
A#|------------------------|
F |------------------------|
C |-7-77-77-77-77-77-77-77-|


[Bridge]

D#|-------------------------------------|
A#|-------------------------------------|
F |-7-777-7-777-7-777-7-777-7-777-7-777-|
C |-------------------------------------|

D#|-------------|
A#|-------------|
F |-----6-------|
C |-7-8---7-5-7-|

D#|-------------------------------------|
A#|-------------------------------------|
F |-7-777-7-777-7-777-7-777-7-777-7-777-|
C |-------------------------------------|

D#|-------------|
A#|-------------| x3
F |-----6-------|
C |-7-8---7-5-7-|

D#|--------------|
A#|--------------|
F |-----6--------|
C |-7-8---7-5-7/-|


[Bass solo]

D#|-------------------------------------------------------------------|
A#|-14-14-14-14-14-14-14-14-12h14-14-14-14-14-14-14-14-12h14-14-14-14-|
F |-------------------------------------------------------------------|
C |-------------------------------------------------------------------|
  |
D#|-12h14-14-14-14-------------------------------|
A#|----------------12h14-14-14-14----------------|
F |-------------------------------12h14-14-14-14-|
C |----------------------------------------------|


[Guitar solo]

D#|----------------------------------------------------------------------|
A#|-12h14-14-14-14-14-14-14-14-12h14-14-14-14-14-14-14-14-12h14-14-14-14-|
F |----------------------------------------------------------------------|
C |----------------------------------------------------------------------|
  |
D#|-12h14-14-14-14----------12h14-14-------------------|
A#|----------------12h14-14----------12h14-14----------|
F |-------------------------------------------12h14-14-|
C |----------------------------------------------------|

D#|----------------------------------------------------------------------|
A#|-12h14-14-14-14-14-14-14-14-12h14-14-14-14-14-14-14-14-12h14-14-14-14-|
F |----------------------------------------------------------------------|
C |----------------------------------------------------------------------|
  |
D#|-12h14-14-14-14----------14h16-16-12h14-14----------|
A#|----------------12h14-14-------------------12h14-14-|
F |----------------------------------------------------|
C |----------------------------------------------------|

D#|-------------------------------------------------------|
A#|-12h14-14-14-14-14-14-14-14-12h14-14-14-14-14-14-14-14-|
F |-------------------------------------------------------|
C |-------------------------------------------------------|

D#|----------12h14-14-------------------|
A#|-12h14-14----------12h14-14----------| x2
F |----------------------------12h14-14-|
C |-------------------------------------|


[Outro]

D#|-------------------------------------------------------------------|
A#|-------------------------------------------------------------------|
F |---7---7---7---7---7---7---7---7---7---7---7---7---7---7---7-------|
C |-0---0---0---0---0---0---0---0---0---0---0---0---0---0---0---0-\12-|

D#|----------------------------------|
A#|--------------------------------5-|
F |---7---7---7---7---7---7------5---|
C |-0---0---0---0---0---0---55-7-----|

D#|---------------------------7h9-7-----|
A#|-----------7h9-7-----------------9-7-|
F |-----------------9-6-6-6-6-----------|
C |-7-7-7-7-7---------------------------|

D#|-------------------|---------------------|
A#|-------------------|---------7h9-7-------|
F |---7---7---7-------|---7---7-------7h9-7-|
C |-0---0---0---0-12\-|-0---0---------------|

D#|------------------------------------|
A#|------------------------------------|
F |--------------------6-6-6-6-6-5-6-5-|
C |-7-7-7-7-7-7-7-77-7-----------------|

D#|---------------|
A#|---------------|
F |-7--7--7--7--7-|
C |---------------|



************************************

| h  Hammer-on
| p  Pull-off
| /  Slide up
| \  Slide down

************************************
Suggest correction
comments
print report bad tab
2 comments total.
+1 reply
sndr.vrkk 10 Apr 06, 2013 12:57 PM

Perfect!!!

0 reply
KentShadows 10 May 31, 2013 12:54 AM

the solo sounds a little out of key. but apart from that, brilliant!

guest
You may want to rate the tab now too:
select rating
Wanna post a correction for this tab? Suggest correction