Oops, an error
Loading. Please wait.

No One Knows Bass Tab

version 6
66,017 views 102 this week
no commentswrite comment
1 2 3 4 5
x 3
add to favorites
launch autoscroll
font size
0
reset
guitar tuner
Autoscroll
slow
fast
+/-
esc
set tempo
stop
Help us to improve Ultimate-Guitar.com Take our survey!
×
Author
Difficulty
Tuning
intermediate
C F A# D# G C
Tuning:
E=C
A=F
D=A#
G=D#

  Q=170
    Gtr I
    Q  Q  Q  Q    Q  Q  Q  Q    q  q  q  q    q  q  q  q
D#|-------------|-------------|-------------|-------------|
A#|-------------|-------------|-------------|-------------|
F |-7-----7-----|-7-----7-----|----7-----7--|----7-----7--|
C |-------------|-------------|-0-----0-----|-0-----0-----|


    q  q  q  q    q  q  q  q      q  q  q  q    q  q  q  q
D#|-------------|-------------||--------------|-------------|
A#|-------------|-------------||o-------------|-------------|
F |----7-----7--|----7-----7--||o----7-----7--|----7-----7--|
C |-0-----0-----|-0-----0-----||--0-----0-----|-0-----0-----|


                                                       |3|
    q  q  q  q    Q  Q  Q  Q    q  q  q  q    q  q  q  Q E
D#|-------------|-------------|-------------|--------------|
A#|-------------|----------5--|-------------|--------------|
F |----7-----7--|-------5-----|----7-----7--|----7---------|
C |-0-----0-----|-5--7--------|-0-----0-----|-0-----0--5-3-|


                           |3|                          |3|
    q  q  q  q    q  q  q  Q E   q  q  q  q    q  q  q  Q E
D#|-------------|--------------|-------------|--------------|
A#|-------------|--------------|-------------|--------------|
F |----7-----7--|----7---------|----7-----7--|----7---------|
C |-0-----0-----|-0-----0--5-3-|-0-----0-----|-0-----0--5-3-|


    q  q  q  q    Q  Q  Q  Q    Q  Q  Q  Q    Q  Q  Q  Q
D#|-------------|-------------|-------------|-------------|
A#|-------------|----------5--|-------------|-------------|
F |----7-----7--|-------5-----|-------------|-------------|
C |-0-----0-----|-5--7--------|-7--7--7--7--|-7--7--7--7--|


    Q  Q  Q  Q    Q  Q  Q  Q    q  q  q  q    q  q  q  q
D#|-------------|-------------|-------------|-------------|
A#|-------------|-------------|-------------|-------------|
F |-6--6--6--6--|-6--5--6--5--|----7-----7--|----7-----7--|
C |-------------|-------------|-0-----0-----|-0-----0-----|


                                                       |3|
    q  q  q  q    Q  Q  Q  Q    q  q  q  q    q  q  q  Q E
D#|-------------|-------------|-------------|--------------|
A#|-------------|----------5--|-------------|--------------|
F |----7-----7--|-------5-----|----7-----7--|----7---------|
C |-0-----0-----|-5--7--------|-0-----0-----|-0-----0--5-3-|


                           |3|                          |3|
    q  q  q  q    q  q  Q  Q E   q  q  q  q    q  q  Q  Q E
D#|-------------|--------------|-------------|--------------|
A#|-------------|--------------|-------------|--------------|
F |----7-----7--|----7---------|----7-----7--|----7---------|
C |-0-----0-----|-0-----0--5-3-|-0-----0-----|-0-----0--5-3-|


    q  q  q  q    Q  Q  Q  Q    Q  Q  Q  Q    Q  Q  Q  Q
D#|-------------|-------------|-------------|-------------|
A#|-------------|-9--7--------|-------------|-------------|
F |----7-----7--|-------9--7--|-------------|-------------|
C |-0-----0-----|-------------|-7--7--7--7--|-7--7--7--7--|


    Q  Q  Q  Q    Q  Q  Q  Q    q  q  q  q    q  q  q  q
D#|-------------|-------------|-------------|-------------|
A#|-------------|-------------|-------------|-------------|
F |-6--6--6--6--|-6--5--6--5--|----7-----7--|----7-----7--|
C |-------------|-------------|-0-----0-----|-0-----0-----|


    q  q  q  q    Q  Q  Q  Q    Q  Q  Q  Q    Q  Q  Q  Q
D#|-------------|-------------|-------------|-------------|
A#|-------------|-9--7--------|-------------|-------------|
F |----7-----7--|-------9--7--|-------------|-------------|
C |-0-----0-----|-------------|-7--7--7--7--|-7--7--7--7--|


    Q  Q  Q  Q    Q  Q  Q  Q    q  q  q  q    q  q  q  q
D#|-------------|-------------|-------------|-------------|
A#|-------------|-------------|-------------|-------------|
F |-6--6--6--6--|-6--5--6--5--|----7-----7--|----7-----7--|
C |-------------|-------------|-0-----0-----|-0-----0-----|


    q  q  q  q    q  q  q  q    Q  Q   Q  Q    Q   Q  Q   Q
D#|-------------|-------------|--------------|---------------|
A#|-------------|-------------|--------------|-7------9------|
F |----7-----7--|----7-----7--|-7--9--10--9--|----10-----10--|
C |-0-----0-----|-0-----0-----|--------------|---------------|


    |3| |3| |3| |3|   |3| |3| |3| |3|
    Q E Q E Q E Q E   Q E Q E Q E Q E   Q  Q   Q  Q    Q   Q  Q   Q
D#|-----------------|-----------------|--------------|---------------|
A#|-----------------|-----------------|--------------|-7------9------|
F |-----------------|-----------------|-7--9--10--9--|----10-----10--|
C |-7-7-7-7-7-7-7-7-|-7-7-7-7-7-7-7-7-|--------------|---------------|


    |3| |3| |3| |3|   |3| |3| |3| |3|
    Q E Q E Q E Q E   Q E Q E Q E Q E    Q  Q  Q  Q    Q  Q   Q  Q
D#|-----------------|-----------------|--------------|--------------|
A#|-----------------|-----------------|--------------|--------------|
F |-----------------|-----------------|-10--9--7--6--|-7--9--10--9--|
C |-7-7-7-7-7-7-7-7-|-7-7-7-7-7-7-7-7-|--------------|--------------|


    |3| |3| |3| |3|   |3| |3| |3| |3|
    Q E Q E Q E Q E   Q E Q E Q E Q E   Q  Q   Q  Q    Q   Q  Q  Q
D#|-----------------|-----------------|--------------|--------------|
A#|-----------------|-----------------|--------------|-7------9--7--|
F |-----------------|-----------------|-7--9--10--9--|----10--------|
C |-7-7-7-7-7-7-7-7-|-7-7-7-7-7-7-7-7-|--------------|--------------|


    |3| |3| |3| |3|   |3| |3| |3| |3|
    Q E Q E Q E Q E   Q E Q E Q E Q E     Q  Q  Q  Q    Q  Q  Q  Q
D#|-----------------|------------------||-------------|-------------|
A#|-----------------|-----------------o||-------------|-------------|
F |-----------------|-----------------o||-7--7--7--7--|-7--7--7--7--|
C |-7-7-7-7-7-7-7-7-|-7-7-7-7-7-7-7-7--||-------------|-------------|

You Can Devolp and fill this line.
                |-3-| |-3-|
  Q  Q  Q  Q    Q Q Q Q Q Q   Q  Q  Q  Q    Q  Q  Q  Q
|-------------|-------------|-------------|-------------|
|-------------|-------------|-------------|-------------|
|-7--7--7--7--|-------------|-7--7--7--7--|-7--7--7--7--|
|-------------|-7-8-6-7-5-7-|-------------|-------------|


                |-3-| |-3-|   |-3-| |-3-|   |-3-| |-3-|
  Q  Q  Q  Q    Q Q Q Q Q Q   Q Q Q Q Q Q   Q Q Q Q Q Q
|-------------|-------------|-------------|-------------|
|-------------|-------------|-------------|-------------|
|-7--7--7--7--|-------------|-------------|-------------|
|-------------|-7-8-6-7-5-7-|-7-8-6-7-5-7-|-7-8-6-7-5-7-|


  |-3-| |-3-|      |3-|  |3-|  |3-|  |3-|    |--3--|  |3-|  |3-|  |3-|
  Q Q Q Q Q Q      Q  E  Q  E  Q  E  Q  E    E  E  E  Q  E  Q  E  Q  E
|-------------||--------------------------|----------------------------|
|-------------||o-14-14-14-14-14-14-14-14-|-12-14-14-14-14-14-14-14-14-|
|-------------||o-------------------------|----------------------------|
|-7-8-6-7-5-7-||--------------------------|----------------------------|


   |--3--|  |3-|  |--3--|  |3-|
   E  E  E  Q  E  E  E  E  Q  E
|----------------12-14-14-14-14-|
|-12-14-14-14-14----------------|
|-------------------------------|
|-------------------------------|


   |--3--|  |3-|  |--3--|  |3-|    |3-|  |3-|  |3-|  |3-|
   E  E  E  Q  E  E  E  E  Q  E    Q  E  Q  E  Q  E  Q  E
|-------------------------------|-------------------------|
|-12-14-14-14-14----------------|-14-14-14-14-14-14-14-14-|
|----------------12-14-14-14-14-|-------------------------|
|-------------------------------|-------------------------|


   |--3--|  |3-|  |3-|  |3-|    |--3--|  |3-|  |--3--|  |3-|
   E  E  E  Q  E  Q  E  Q  E    E  E  E  Q  E  E  E  E  Q  E
|----------------------------|----------------12-14-14-14-14-|
|-12-14-14-14-14-14-14-14-14-|-12-14-14-14-14----------------|
|----------------------------|-------------------------------|
|----------------------------|-------------------------------|


   |--3--|  |3-|  |--3--|  |3-|
   E  E  E  Q  E  E  E  E  Q  E
|--------------------------------|
|-12-14-14-14-14----------------o|
|----------------12-14-14-14-14-o|
|--------------------------------|


    q  q  q  q    q  q  q  q    q  q  q  q    q  q  q  q
D#|-------------|-------------|-------------|-------------|
A#|-------------|-------------|-------------|-------------|
F |----7-----7--|----7-----7--|----7-----7--|----7-----7--|
C |-0-----0-----|-0-----0-----|-0-----0-----|-0-----0-----|


    q  q  q  q    q  q  q  q    q  q  q  q    q  q  q  q
D#|-------------|-------------|-------------|-------------|
A#|-------------|-------------|-------------|-------------|
F |----7-----7--|----7-----7--|----7-----7--|----7-----7--|
C |-0-----0-----|-0-----0-----|-0-----0-----|-0-----0-----|


    q  q  q  q    q  q  q  q    q  q  q  q    Q  Q  Q  Q
D#|-------------|-------------|-------------|-------------|
A#|-------------|-------------|-------------|----------5--|
F |----7-----7--|----7-----7--|----7-----7--|-------5-----|
C |-0-----0-----|-0-----0-----|-0-----0-----|-5--7--------|


    Q  Q  Q  Q    Q  Q  Q  Q    Q  Q  Q  Q    Q  Q  Q  Q
D#|-------------|-------------|-------------|-9--7--------|
A#|-------------|----9--7-----|-------------|-------9--7--|
F |-------------|----------9--|-6--6--6--6--|-------------|
C |-7--7--7--7--|-7-----------|-------------|-------------|


    q  q  q  q    q  q  q  q    q  q  q  q    Q  Q  Q  Q
D#|-------------|-------------|-------------|-------------|
A#|-------------|-------------|-------------|-9--7--------|
F |----7-----7--|----7-----7--|----7-----7--|-------9--7--|
C |-0-----0-----|-0-----0-----|-0-----0-----|-------------|


    Q  Q  Q  Q    Q  Q  Q  Q    Q  Q  Q  Q    Q  Q  Q  Q
D#|-------------|-------------|-------------|-------------|
A#|-------------|-------------|-------------|-------------|
F |-------------|-------------|-6--6--6--6--|-6--5--6--5--|
C |-7--7--7--7--|-7--7--7--7--|-------------|-------------|


    Q  Q  Q  Q    Q  Q  Q  Q    Q  Q  H
D#|-------------|-------------|------------|
A#|-------------|-------------|------------|
F |-7-----7-----|-7-----7-----|-7----------|
C |-------------|-------------|------------| 
Suggest correction
Give kudos to tab author, rate the tab!
1 2 3 4 5
comments
print report bad tab
guest
You may want to rate the tab now too:
select rating
Wanna post a correction for this tab? Suggest correction