Oops, an error
Loading. Please wait.
We have an official No One Knows tab made by UG professional guitarists. Check out the tab »
×

No One Knows tab

270,874 views 171 this week
24 commentsread comments
1 2 3 4 5
x 39
add to favorites
×
Save as Personal and add changes to this tab that will be seen only by you. Learn more ›
×
You can save this tab as Personal to edit and correct it or add notes. All changes will be seen only by you. Learn more »
launch autoscroll
font size
0
reset
how to read this tab
guitar tuner
backing track
0:00
0:00
edit
Autoscroll
slow
fast
+/-
esc
set tempo
stop
Author
NO ONE KNOWS
                     As recorded by Queens Of The Stone Age
                    (From the 2002 Album SONGS FOR THE DEAF)

Words and Music by Josh Homme, Nick Oliveri & Mark Lanegan
Transcribed by www.mikesguitarsite.co.uk

Gtr I (C F Bb Eb G C) - 'Josh Homme - Rhythm w/light dist'
Gtr II (C F Bb Eb G C) - 'Josh Homme - Rhythm w/heavy dist'
Gtr III (C F Bb Eb G C) - 'Synth arr. for gtr.'


[Intro]

  Q=173(8=s8)
 4/4
  Gtr I
|-12----12----|-12----12-------|----------------|------------------|
|--8-----8----|--8-----8-------|----10--10-8----|-10--10-8---------|
|--x-----x----|--x-----x-------|-----x---x---9--|--x---x---9-------|
|--9-----9----|--9-----9-------|-----9---9------|--9---9-----------|
|--7-----7----|--7-----7-------|-----7---7------|--7---7-----------|
|-------------|-----------12\--|-0--------------|-------------12\--|


|----------------|------------------|
|----10--10-8----|-10--10-8---------|
|-----x---x---9--|--x---x---9-------|
|-----9---9------|--9---9-----------|
|-----7---7------|--7---7-----------|
|-0--------------|-------------12\--|


|----------------|------------------------------|
|----10--10-8----|-10--10b11.5==(10)r(10)-------|
|-----x---x---9--|--x---x-----------------------|
|-----9---9------|--9---9-----------------------|
|-----7---7------|--7---7-----------------------|
|-0--------------|-------------------------12\--|


[Verses]

                                 $
|----------------|-<7>-----------||--------------|--------------|
|----10--10-8----|-<7>--<7>------||o----8-----8--|----8-------0-|
|-----x---x---9--|-<7>--<7>------||-----x-----x--|----x-------0-|
|-----9---9------|---------------||-----9-----9--|----9---------|
|-----7---7------|---------------||o----7-----7--|----7---------|
|-0--------------|---------------||--0-----0-----|-0-----0--0---|


|-------------|--------------|-------------|--------------|
|-8--8-----8--|----8-----8-0-|-8--8-----8--|----8-----8-0-|
|-x--x-----x--|----x-----x-0-|-x--x-----x--|----x-----x-0-|
|-9--9-----9--|----9-----9---|-9--9-----9--|----9-----9---|
|-7--7-----7--|----7-----7---|-7--7-----7--|----7-----7---|
|-------0-----|-0-----0------|-------0-----|-0-----0------|


|-------------|--------------|-----------------|-------------------|
|-8--8-----8--|----8-----8-0-|-10--10--10--10--|-10--10--10-0-10-0-|
|-x--x-----x--|----x-----x-0-|--8---8---8---8--|--8---8---8----8---|
|-9--9-----9--|----9-----9---|--x---x---x---x--|--x---x---x----x---|
|-7--7-----7--|----7-----7---|--9---9---9---9--|--9---9---9----9---|
|-------0-----|-0-----0------|--7---7---7---7--|--7---7---7----7---|


                               1.
|-------------|---------------|----------------|-------------------------|
|-8--8--8--8--|-8--8--8-0-8-0-|-8--10--10-8----|-10--10-8----------------|
|-8--8--8--8--|-8--8--8---8---|-x---x---x---9--|--x---x---9--------------|
|-x--x--x--x--|-x--x--x---x---|-9---9---9------|--9---9------------------|
|-6--6--6--6--|-6--6--6---6---|-7---7---7------|--7---7------------------|
|-------------|---------------|----------------|----------------12\------|
|
|-------------|---------------|----------------|-------------------------|
|-------------|---------------|----------------|-10--10------------------|
|-------------|---------------|----------------|--x---x------------------|
|-------------|---------------|----------------|--9---9------------------|
|-------------|---------------|----------------|--7---7-------5--7p5-----|
|-------------|---------------|----------------|--------0-5h7--------7---|


|----------------|-----0---------------||
|----10--10-8----|-8---5pb5.5r===(5)--o||
|-----x---x---9--|-x-------------------||
|-----9---9------|-9-------------------||
|-----7---7------|-7------------------o||
|-0--------------|---------------------||
|
|----------------|---------------------||
|----------------|-8--<7>-------------o||
|----------------|-7--<7>--------------||
|----------------|-9-------------------||
|----------------|-7------------------o||
|----------------|---------------------||


  2.
|----------------|--------------------------|
|-8--10--10-8----|-10--10-------------------|
|-x---x---x---9--|--x---x-------------------|
|-9---9---9------|--9---9-------------------|
|-7---7---7------|--7---7-------5--7p=5-----|
|----------------|--------0-5h7---------7---|
|
|----------------|--------------------------|
|----------------|-10--10-8-----------------|
|----------------|--x---x---9---------------|
|----------------|--9---9-------------------|
|----------------|--7---7-------------------|
|----------------|----------------17\-------|


|----------------|------------------|-----------------|-------------------|
|----10--10-8----|-10--10-8---------|-10--10--10--10--|-10--10--10-0-10-0-|
|-----x---x---9--|--x---x---9-------|--8---8---8---8--|--8---8---8----8---|
|-----9---9------|--9---9-----------|--x---x---x---x--|--x---x---x----x---|
|-----7---7------|--7---7-----------|--9---9---9---9--|--9---9---9----9---|
|-0--------------|-------------12\--|--7---7---7---7--|--7---7---7----7---|


                                                                   ~
|-------------|---------------|----------------|----------------12----|
|-8--8--8--8--|-8--8--8-0-8-0-|-8--10--10-8----|-10--10-0-10b12-------|
|-8--8--8--8--|-8--8--8---8---|-x---x---x---9--|--x---x------------9--|
|-x--x--x--x--|-x--x--x---x---|-9---9---9------|--9---9---------------|
|-6--6--6--6--|-6--6--6---6---|-7---7---7------|--7---7---------------|
|-------------|---------------|----------------|----------------------|


[Bridge]

|----------------|-----------------||--------------------|---------------------|
|----10--10-8----|-10--10-8--------||--------------------|---------------------|
|-----x---x---9--|--x---x---9--9-x-||-9-x-11-x-12-x-11-x-|-14-x-12-x-16-x-14-x-|
|-----9---9------|--9---9------x-x-||-x-x--x-x--x-x--x-x-|--x-x--x-x--x-x--x-x-|
|-----7---7------|--7---7------7-x-||-7-x--9-x-10-x--9-x-|-12-x-10-x-14-x-12-x-|
|-0--------------|-----------------||--------------------|---------------------|


  Gtrs I, II
|-----------------|-----------------|-----------------|
|-----------------|-----------------|-----------------|
|-----------------|-----------------|-----------------|
|-----------------|-----------------|-----------------|
|-9p0-9p0-9p0-9p0-|-9p0-9p0-9p0-9p0-|-9p0-9p0-9p0-9p0-|
|-7p0-7p0-7p0-7p0-|-7p0-7p0-7p0-7p0-|-7p0-7p0-7p0-7p0-|


|-----------------|-----------------|------------------|
|-----------------|-----------------|------------------|
|-----------------|-----------------|------------------|
|-----------------|-----------------|------------------|
|-9p0-9p0-9p0-9p0-|-9p0-9p0-9p0-9p0-|-9p0-9p0-9p0-9p0--|
|-7p0-7p0-7p0-7p0-|-7p0-7p0-7p0-7p0-|-7p0-7p0-7p0-7p0--|


|-------------------|--------------------|-----------------|-----------------|
|-------------------|--------------------|-----------------|-----------------|
|-12-x-11-x-9-x-8-x-|-9-x-11-x-12-x-11-x-|-----------------|-----------------|
|--x-x--x-x-x-x-x-x-|-x-x--x-x--x-x--x-x-|-----------------|-----------------|
|-10-x--9-x-7-x-6-x-|-7-x--9-x-10-x--9-x-|-9p0-9p0-9p0-9p0-|-9p0-9p0-9p0-9p0-|
|-------------------|--------------------|-7p0-7p0-7p0-7p0-|-7p0-7p0-7p0-7p0-|


|--------------------|---------------------|
|--------------------|---------------------|
|-9-x-11-x-12-x-11-x-|-14-x-12-x-16-x-14-x-|
|-x-x--x-x--x-x--x-x-|--x-x--x-x--x-x--x-x-|
|-7-x--9-x-10-x--9-x-|-12-x-10-x-14-x-12-x-|
|--------------------|---------------------|


                           
[To Coda]

|-----------------|-----------------||
|-----------------|-----------------||
|-----------------|-----------------||
|-----------------|-----------------||
|-9p0-9p0-9p0-9p0-|-9p0-9p0-9p0-9p0-||
|-7p0-7p0-7p0-7p0-|-7p0-7p0-7p0-7p0-||


                                                            [D.S. al Coda]

  Gtr I
|----------------|------------------|----------------|----0--------------||
|----10--10-8----|-10--10-8---------|----10--10-8----|----5pb5.5r===(5)--||
|-----x---x---9--|--x---x---9-------|-----x---x---9--|-------------------||
|-----9---9------|--9---9-----------|-----9---9------|-9-----------------||
|-----7---7------|--7---7-----------|-----7---7------|-7-----------------||
|-0--------------|-------------12\--|-0--------------|-------------------||


    &
    Gtrs I, II
||----------------------|---------------------|
||o---------------------|---------------------|
||----------------------|---------------------|
||----------------------|---------------------|
||o-14-x-14-x-14-x-14-x-|-14-x-14-x-14-x-14-x-|
||--12-x-12-x-12-x-12-x-|-12-x-12-x-12-x-12-x-|


|---------------------|----------------||
|---------------------|---------------o||
|---------------------|----------------||
|---------------------|------8---------||
|-14-x-14-x-14-x-14-x-|-9-10-6-9-7-9--o||
|-12-x-12-x-12-x-12-x-|-7--8---7-5-7---||


|--------------|--------------|--------------||-----------|
|--------------|--------------|--------------||-----------|
|--------------|--------------|--------------||-----------|
|------8-------|------8-------|------8-------||-----------|
|-9-10-6-9-7-9-|-9-10-6-9-7-9-|-9-10-6-9-7-9-||-14--------|
|-7--8---7-5-7-|-7--8---7-5-7-|-7--8---7-5-7-||-12--------|


|---------|---------|-----||
|---------|---------|-----||
|---------|---------|-----||
|---------|---------|-----||
|---------|---------|-----||
|---------|---------|-----||


 [Guitar Solo]

  Gtr II
                                ~~~
|-----0-----0------0-------0-|--0------0-----0----|--0-----0-----0---0----|
|-5s7---7s8---8s10---10s12---|-12-----12s17-17s15-|-15s19-19s15-15--17s15-|
|----------------------------|--------------------|-----------------------|
|----------------------------|--------------------|-----------------------|
|----------------------------|--------------------|-----------------------|
|----------------------------|--------------------|-----------------------|
|
| Gtr III
|----------------------------|--------------------|-----------------------|
|----------------------------|--------------------|-----------------------|
|----------------------------|--------------------|-----------------------|
|----------------------------|--------------------|-----------------------|
|----------------------------|--------------------|--0--------------------|
|-0--------------------------|-(0)----------------|-----------------------|


                          ~~          ~~~~
|-0--------------------|-----------------|
|-8s12-(12)----12p10s8-|-10----10p8s7-8--|
|----------------------|-----------------|
|----------------------|-----------------|
|----------------------|-----------------|
|----------------------|-----------------|
|
|----------------------|-----------------|
|----------------------|--5--------------|
|----------------------|--4--------------|
|----------------------|--2--------------|
|-2--------------------|-----------------|
|----------------------|-----------------|


 ~~~~~       ~                 ~~~~~~~
|-----------------|----------------------|
|-(8)--8p7s5-7----|-7h8p7p5-7S12-(12)----|
|-----------------|----------------------|
|-----------------|----------------------|
|-----------------|----------------------|
|-----------------|----------------------|
|
|-----------------|-0--------------------|
|--5--------------|-0--------------------|
|--3--------------|-0--------------------|
|--4--------------|----------------------|
|-----------------|----------------------|
|-----------------|----------------------|


                                ~~~~~~~              ~~~~~~~
|--------------------|--------------------|-------------------|
|---8-12-(12)b15-----|---8-12-(12)b15-----|---8-12-(12)b15----|
|-9------------------|-9------------------|-9-----------------|
|--------------------|--------------------|-------------------|
|--------------------|--------------------|-------------------|
|--------------------|--------------------|-------------------|
|
|--------------------|-0------------------|-2-----------------|
|-3------------------|-0------------------|-------------------|
|-3------------------|--------------------|-3-----------------|
|--------------------|--------------------|-------------------|
|--------------------|--------------------|-------------------|
|--------------------|--------------------|-------------------|


|-14p11---------------------14p11---------------------|
|-------12b15==(12)r(12)----------12b15==(12)r(12)----|
|------------------------12------------------------12-|
|-----------------------------------------------------|
|-----------------------------------------------------|
|-----------------------------------------------------|
|
|--3--------------------------------------------------|
|--3--------------------------------------------------|
|-----------------------------------------------------|
|-----------------------------------------------------|
|-----------------------------------------------------|
|-----------------------------------------------------|


|-14p11---------------------14p11---------------------|-12--------||
|-------12b15==(12)r(12)----------12b15==(12)r(12)----|-----------||
|------------------------12------------------------12-|-----------||
|-----------------------------------------------------|-----------||
|-----------------------------------------------------|-----------||
|-----------------------------------------------------|-----------||
|
|--7--------------------------------------------------|-12--------||
|--4--------------------------------------------------|-----------||
|-----------------------------------------------------|--9--------||
|-----------------------------------------------------|-----------||
|-----------------------------------------------------|-----------||
|-----------------------------------------------------|-----------||


[Verse]


  Gtr I
|-----!x-------|-------------|--------------|-------------|
|-----!x-------|----8-----8--|----8-----8-0-|-8--8-----8--|
|-----!x-------|----x-----x--|----x-----x-0-|-x--x-----x--|
|--------------|----9-----9--|----9-----9---|-9--9-----9--|
|--------------|----7-----7--|----7-----7---|-7--7-----7--|
|---------12\--|-0-----0-----|-0-----0------|-------0-----|


|--------------|-----------------|------------------|-------------|
|----8-----8-0-|-10--10--10--10--|-10--10--10--10-0-|-8--8--8--8--|
|----x-----x-0-|--8---8---8---8--|--8---8---8---8---|-8--8--8--8--|
|----9-----9---|--x---x---x---x--|--x---x---x---x---|-x--x--x--x--|
|----7-----7---|--9---9---9---9--|--9---9---9---9---|-6--6--6--6--|
|-0-----0------|--7---7---7---7--|--7---7---7---7---|-------------|


|---------------|----------------|------------------|----------------|
|-8--8--8-0-8-0-|-8--10--10-8----|-10--10-8----<7>--|----10--10-8----|
|-8--8--8---8---|-x---x---x---9--|--x---x---9--<7>--|-----x---x---9--|
|-x--x--x---x---|-9---9---9------|--9---9-----------|-----9---9------|
|-6--6--6---6---|-7---7---7------|--7---7-----------|-----7---7------|
|---------------|----------------|------------------|-0--------------|


|-----------------|-------------|---------------|-------------|
|-10--10-8----8-x-|-------------|---------0---0-|-8--8--8--8--|
|--x---x---9--x-x-|-8--8--8--8--|-8--8--8---8---|-8--8--8--8--|
|--9---9------9-x-|-x--x--x--x--|-x--x--x---x---|-x--x--x--x--|
|--7---7------7---|-9--9--9--9--|-9--9--9---9---|-6--6--6--6--|
|-----------------|-7--7--7--7--|-7--7--7---7---|-------------|


|-------------|-12----12----|-12----12----|-12--------*|
|-8--8--8--8--|--8-----8----|--8-----8----|--8--------*|
|-8--8--8--8--|--x-----x----|--x-----x----|--x--------*|
|-x--x--x--x--|--9-----9----|--9-----9----|--9--------*|
|-6--6--6--6--|--7-----7----|--7-----7----|--7--------*|
|-------------|-------------|-------------|-----------*|


Tablature Legend
************************************

| x    Dead note
| (n)  Ghost note
| h    Hammer-on
| p    Pull-off
| >    Accented note
| b    Bend
| pb   Pre-bend
| \    Slide down
| s    Slide up

************************************

Misc Legend
-----------
 |  - bar
||  - double bar
||o - repeat start
o|| - repeat end
*|  - double bar (ending)
 :  - bar (freetime)
 $  - Segno
 &  - Coda
Tempo markers -  = BPM(8/16=s8/s16), where s8 = swing 8ths, s16 = swing 16ths

            
            
Suggest correction
Creating personal tab
Creating personal tab
You can edit any tab online and save it as your Personal.

You can edit, replace or remove any tab part or add personal notes – all changes will be seen only by you.

Personal tabs can be accessed anytime from any device, even offline.
Learn more »
comments
print report bad tab
24 comments total. Showing first comments.
+1 reply
Strat_Monkey 172 Mar 04, 2005 07:00 PM

Little hard to follow where you've out down the variations in the verse. Other than that, pretty good.

+1 reply
IndexX 10 Mar 13, 2005 07:00 PM

Absolutely no remarks.
Brilliant tab

+7 reply
XhooperX 10 May 17, 2007 03:33 PM

umm i don't get how you reach from 12- 7 on the first chord, otherwise its good. is there an easy way or what?
maybe its just my 13 year old- fingers.

guest
You may want to rate the tab now too:
select rating
Wanna post a correction for this tab? Suggest correction