Oops, an error
Loading. Please wait.

Ode To Clarissa tab

version 3
version 3

Whole song

Interactive

372 views 3 this week
no commentswrite comment
1 2 3 4 5
2 more votes to show rating
add to favorites
×
Save as Personal and add changes to this tab that will be seen only by you. Learn more ›
×
You can save this tab as Personal to edit and correct it or add notes. All changes will be seen only by you. Learn more »
launch autoscroll
font size
0
reset
how to read this tab
guitar tuner
edit
Autoscroll
slow
fast
+/-
esc
set tempo
stop
---------------------------------------------------------------------
                               Ode To Clarissa
                          Queens of the Stone Age
---------------------------------------------------------------------

This tab is correct. If you listen to the song closely, there is
either a lead guitar playing with the rhythm or the chords are
played the way I have them written here. If you want to play with
two guitars, simply take the chords from the intro and chorus and
verse fill and have gtr 1 play the powerchords and gtr 2 play the
lead fills written at the end of the tab as well as the solo.

Tuning: C F Bb Eb G c
If in standard, move all numbers down 4 (i.e. solo
would be played at 10th and 12th frets in standard)

---------------------------------------------------------------------


Intro

c -------------------------------------|
G --------------------------------7-9--|
Eb-8--8-8--8-8--8-8--8-8--8-8--8--7-9--|
Bb-9--9-9--9-9--9-9--9-9--9-9--9--7-9--|
F -9--9-9--9-9--9-9--9-9--9-9--9--5-7--|
Bb-7--7-7--7-7--7-7--7-7--7-7--7-------|



Solo (bend might be 3/4 bend; wide vibrato)

c ------------------------------------------------|
G ------------------------------------------------|
Eb-----------14-16hb--14-16-14------------14~~----|
Bb-(14)-14-16-----------------16--16-14-16----16--|
F ------------------------------------------------|
Bb------------------------------------------------|


Verse

c ------------------------------------|
G ------------------------------------|
Eb------------------------------------|
Bb-12-12---9-9--7-7--12-12--7-7--9-9--|
F -12-12---9-9--7-7--12-12--7-7--9-9--|
Bb-10-10---7-7--5-5--10-10--5-5--7-7--|


"You know he warned me once before"
Return to verse after this

c --------------------------------------------|
G --------------------------------------------|
Eb-6--6-6--6-6--6-6--6-6--6-6--6-6--6-6-------|
Bb-7--7-7--7-7--7-7--7-7--7-7--7-7--7-7--9-9--|
F -7--7-7--7-7--7-7--7-7--7-7--7-7--7-7--9-9--|
Bb-5--5-5--5-5--5-5--5-5--5-5--5-5--5-5--7-7--|


Chorus rhythm

c ----------------------------------|
G -------7-7-------7-7-------7-7-9--|
Eb-8-8---7-7--6-6--7-7--6-6--7-7-9--|
Bb-9-9---7-7--7-7--7-7--7-7--7-7-9--|
F -9-9---5-5--7-7--5-5--7-7--5-5-7--|
Bb-7-7--------5-5-------5-5---------|


Lead fills (if you play with two guitars)

Intro

c ------------------------------------|
G -------------------------------7-9--|
Eb-8--8-8--8-8--8-8--8-8--8-8--8------|
Bb------------------------------------|
F ------------------------------------|
Bb------------------------------------|


"You know he warned me once before"

c ---------------------------------------|
G ---------------------------------------|
Eb-6--6-6--6-6--6-6--6-6--6-6--6-6--6-6--|
Bb---------------------------------------|
F ---------------------------------------|
Bb---------------------------------------|


Chorus

c ----------------------------|
G ------7-7-----7-7----7-7-9--|
Eb-8-8------6-6----6-6--------|
Bb----------------------------|
F ----------------------------|
Bb----------------------------|


Intro 2x
Solo 2x
Verse 6x
Verse fill "he warned me..."
Verse 4x
Verse fill "he warned me..."
Chorus 5x
Intro 2x
Solo 2x
Verse 4x
Verse fill
Verse x3
Verse fill
Chorus 9x
Intro 1x

            
            
Suggest correction
Creating personal tab
Creating personal tab
You can edit any tab online and save it as your Personal.

You can edit, replace or remove any tab part or add personal notes – all changes will be seen only by you.

Personal tabs can be accessed anytime from any device, even offline.
Learn more »
Give kudos to tab author, rate the tab!
1 2 3 4 5
comments
print report bad tab
guest
Wanna post a correction for this tab? Suggest correction