Oops, an error
Loading. Please wait.

Tangled Up In Plaid Tab

version 1
version 1

Whole song

Interactive

40,606 views 99 this week
13 commentsread comments
1 2 3 4 5
x 12
add to favorites
launch autoscroll
font size
0
reset
how to read this tab
guitar tuner
Autoscroll
slow
fast
+/-
esc
set tempo
stop
This is possibly the best song on Lullabies to Paralyze. I'd say it's a toss up between
this and The Blood is Love. In C Tuning, and there's a lot of weird changes in the
rhythm.

[Intro]
Guitar I (this is actually a piano, which returns with the same part right before the 
2nd chorus)
e|-14-15-14-12-11-12-14-15-12-11-9-11-14-15-14-12-11-12-14-15-14-12-11-12-|
B|------------------------------------------------------------------------|
G|------------------------------------------------------------------------|
D|------------------------------------------------------------------------|
A|------------------------------------------------------------------------|
E|------------------------------------------------------------------------|

[Guitar II](high reverb with slight distortion)
e|-14~---------12-14~---15-12~--------12-17~------19-14~---12-11-12--20~--|
B|------------------------------------------------------------------------|
G|------------------------------------------------------------------------|
D|------------------------------------------------------------------------|
A|------------------------------------------------------------------------|
E|------------------------------------------------------------------------|

[Guitar I Cont.]
e|-14-15-14-----|
B|--------------|
G|----------9~--|
D|----------9~--|
A|----------7~--|
E|--------------|

[Guitar II Cont.]
e|----------14~-|
B|--------------|
G|--------------|
D|--------------|
A|--------------|
E|--------------|

[Verse]
[Guitar I](medium distortion)
    G                         G sharp
e|-----------------------------------------------------|
B|-----------------------------------------------------|
G|-----------------------------------------------------|
D|-----------------------------------------------------|
A|-----------------------------------------------------|
E|-/7-7^0-7-7^0-7-7^0h7^0-8--8^0-8^0-8--8--8--8^8^8^0--|

   G                     G sharp       C
e|------------------------------------------|
B|------------------------------------------|
G|-------------------------------------13~--|
D|-------------------------------------14~--|
A|-------------------------------------14~--|
E|-7-7p0-7^0-7^0-7-0-7-0-8--8^0-8--8^0-12~--|

[Guitar II fill]
e|------------------------------|
B|------------------------------|
G|-14--12p11/8~~~~-------9~~~~--|
D|------------------------------|
A|------------------------------|
E|------------------------------|

[Guitar I Verse]
   (I Slipped  Didn't Mean, Didn't Mean to Do it That)
e|--------------------------------------------------|
B|--------------------------------------------------|
G|--------------------------------------------------|
D|--------------------------------------------------|
A|--------------------------------------------------|
E|-7-7p0-7^0-7^0-7-0-7-0-8--8^0-8--8^0-8-^0-8p0-8p0-|

(Way  Well I Blew in on a Whim  Gone Tomorrow I'm Gone)
e|----------------------------------------------------|
B|----------------------------------------------------|
G|----------------------------------------------------|
D|----------------------------------------------------|
A|----------------------------------------------------|
E|-7-7^0-7-7^0-7-7^0h7^0-8--8^0-8^0-8--8--8--8^8^8^0--|

[Guitar II Lead]
e|-----------11-12--14--19~~~~~--|
B|-------------------------------|
G|-------------------------------|
D|-------------------------------|
A|-------------------------------|
E|-------------------------------|

  Today      Oh Yeah             Oh Yeah
e|--------------------------------------------------|
B|--------------------------------------------------|
G|--------------------------------------------------|
D|--------------------------------------------------|
A|--------------------------------------------------|
E|-7-7p0-7^0-7^0-7-0-7-0-8--8^0-8--8^0-8-^0-8p0-8p0-|

[Guitar II Lead]
e|-----------------------------------------------------------|
B|-----------------------------------------------------------|
G|------------------------------------9^^-11^(harmonic)~~~~~-|
D|-----------------------------------------------------------|
A|-----------------------------------------------------------|
E|-----------------------------------------------------------|

   Whoa-oohwhoa-oohwhoa-yeah                Hangin'
e|--------------------------------------------------|
B|--------------------------------------------------|
G|--------------------------------------------------|
D|--------------------------------------------------|
A|--------------------------------------------------|
E|-7-7p0-7^0-7^0-7-0-7-0-8--8^0-8--8^0-8-^0-8p0-8p0-|

[Guitar II]
e|---------------------------------------14~~~~~~~~-|
B|--------------------------------------------------|
G|--------------------------------------------------|
D|--------------------------------------------------|
A|--------------------------------------------------|
E|--------------------------------------------------|
  Low            Hangin' Low          Whoa-ooh-oh

e|----------------------------------------------------|
B|----------------------------------------------------|
G|----------------------------------------------------|
D|----------------------------------------------------|
A|----------------------------------------------------|
E|-7-7^0-7-7^0-7-7^0h7^0-8--8^0-8^0-8--8--8--8^8^8^0--|

[Guitar II lead]
e|-----------------------------------------12~----15~-17~--12~-|
B|-------------------------------------------------------------|
G|-------------------------------------------------------------|
D|-------------------------------------------------------------|
A|-------------------------------------------------------------|
E|-------------------------------------------------------------|
               Hangin' Low

e|---------------------------------------|
B|---------------------------------------|
G|----------------------------------13~--|
D|----------------------------------14~--|
A|----------------------------------14~--|
E|-7-7^0-7-7^0-7-7^0h7^0-8--8^0-8^0-12~--|

[Both Guitars](Heavy Distortion)
e|------------|
B|------------|
G|------9-----|
D|-9-10-9-10--|
A|-9-10-7-10--|
E|-7-8----8---|

       Come Let's Play Along and  Let Each Other
e|--------------------------------------------------|
B|--------------------------------------------------|
G|--------------------------------------------------|
D|-9-9-9-9-9-9-9-9-9-9-9-10-10--10-10--10---10--10--|
A|-9-9-9-9-9-9-9-9-9-9-9-10-10--10-10--10---10--10--|
E|-7-7p0-7^0-7^0-7-0-7-0-8--8^0-8--8^0-8-^0-8p0-8p0-|

  Lose A Win Would Cause an Alarm  Don't Matter to Me Don't Matter
e|------------------------------------------------------------|
B|----------------------------------13-13-13-13-11-11-11-11---|
G|----------------------------------9--9--9--9--9--9--9--9----|
D|-9-9-9-9-9-9-9-9-9-9-9-10-10--10--10-10-10-10-10-10-10-10---|
A|-9-9-9-9-9-9-9-9-9-9-9-10-10--10--10-10-10-10-10-10-10-10---|
E|-7-7^0-7-7^0-7-7^0h7^0-8--8^0-8---8--8--8--8--8--8--8--8----|

  To You      Oh Yeah    Oh Yeah
e|--------------------------------------------------|
B|--------------------------------------------------|
G|--------------------------------------------------|
D|-9-9-9-9-9-9-9-9-9-9-9-10-10--10-10--10---10--10--|
A|-9-9-9-9-9-9-9-9-9-9-9-10-10--10-10--10---10--10--|
E|-7-7p0-7^0-7^0-7-0-7-0-8--8^0-8--8^0-8-^0-8p0-8p0-|

   Whoa-oohwhoa-oohwhoa-yeah
e|----------------------------------------------|
B|----------------------------------------------|
G|----------------------------------------------|
D|-9-9-9-9-9-9-9-9-9-9-9-10-10--10-10--10---10--|
A|-9-9-9-9-9-9-9-9-9-9-9-10-10--10-10--10---10--|
E|-7-7p0-7^0-7^0-7-0-7-0-8--8^0-8--8^0-8-^0-8p0-|

[Chorus](Heavy Distortion)
     A sharp
                        I Could Keep You All For
e|------------------------------------------|
B|------------------------------------------|
G|------------------------------------------|
D|-3/12---12---12---/14--12---12---12---/14-|
A|-3/12---12---12---/14--12---12---12---/14-|
E|-1/10p0-10p0-10p0-/12--10p0-10p0-10p0-/12-|

[G sharp]
   Myself           I Know You Gotta Be
e|----------------------------------|
B|----------------------------------|
G|----------------------------------|
D|-10--10--10--/14--10--10--10--/14-|
A|-10--10--10--/14--10--10--10--/14-|
E|-8p0-8p0-8p0-/12--8p0-8p0-8p0-/12-|

   F                         G sharp
   Free                      So Free Yourself
e|-------------------------------------------------------------------------|
B|-------------------------------------------------------------------------|
G|-------------------------------------------------------------------------|
D|-7-7-7-7-7--x(7)14--7-7-7-7-7-x(7)9--10---10---10--/14-10---10---10--/14-|
A|-7-7-7-7-7--x(7)14--7-7-7-7-7-x(7)9--10---10---10--/14-10---10---10--/14-|
E|-5-0-5-0-5--x(5)12--5-0-5-0-5-x(5)7--8p0--8p0--8p0-/12-8p0--8p0--8p0-/12-|

[Verse II]
                   Hangin' Low           Ooooohoh
e|------------------------------------------------------|
B|------------------------------------------------------|
G|------------------------------------------------------|
D|------------------------------------------------------|
A|------------------------------------------------------|
E|-1/7-7^0-7-7^0-7-7^0h7^0-8--8^0-8^0-8--8--8--8^8^8^0--|

  Hangin' Low
e|-------------------------------------------------------|
B|-------------------------------------------------------|
G|-------------------------------------------------------|
D|-------------------------------------------------------|
A|------------------------------------------9-9/18v--12\-|
E|-7-7p0-7^0-7^0-7-0-7-0-8--8^0-8--8^0-0--0-7-7/16v--10\-|

 Lead
e|------------------------------------------------------------|
B|------------------------------------------------------------|
G|-------------------------------------------------14^/16~~~--|
D|------------------------------------------------------------|
A|------------------------------------------------------------|
E|------------------------------------------------------------|

         Self-Inflicted Wound Your Gift Impeccable Aim
e|--------------------------------------------------|
B|--------------------------------------------------|
G|--------------------------------------------------|
D|-9-9-9-9-9-9-9-9-9-9-9-10-10--10-10--10---10--10--|
A|-9-9-9-9-9-9-9-9-9-9-9-10-10--10-10--10---10--10--|
E|-7-7p0-7^0-7^0-7-0-7-0-8--8^0-8--8^0-8-^0-8p0-8p0-|

  Can Really Clear a Room, All the Bodies Pile Up in Your Way
e|--------------------------------------------------------|
B|---------------------------------------------------11~--|
G|-----------------------9---11--12--11--9---11--12-------|
D|-9-9-9-9-9-9-9-9-9-9-9-10--10--10--10--10--10--10--10---|
A|-9-9-9-9-9-9-9-9-9-9-9-10--10--10--10--10--10--10--10---|
E|-7-7^0-7-7^0-7-7^0h7^0-8---8---8---8---8---8---8---8----|

  Oh Yeah (It Hurts) Whoah yeah (Well it Must) Whoa Yeah
e|--------------------------------------------------|
B|--------------------------------------------------|
G|--------------------------------------------------|
D|-9-9-9-9-9-9-9-9-9-9-9-10-10--10-10--10---10--10--|
A|-9-9-9-9-9-9-9-9-9-9-9-10-10--10-10--10---10--10--|
E|-7-7p0-7^0-7^0-7-0-7-0-8--8^0-8--8^0-8-^0-8p0-8p0-|

 Lead
e|--------------------------------------------------------|
B|--------------------------------------------------------|
G|-7^/9^~~~~~~~~~~~~~~~8^/9^~~~~~~~~~~9^/11^~~~~~~~~~~~~--|
D|--------------------------------------------------------|
A|--------------------------------------------------------|
E|--------------------------------------------------------|

[Chorus II]
Chorus (Heavy Distortion)
 A sharp
                        I Could Keep You All For
e|------------------------------------------|
B|------------------------------------------|
G|------------------------------------------|
D|-3/12---12---12---/14--12---12---12---/14-|
A|-3/12---12---12---/14--12---12---12---/14-|
E|-1/10p0-10p0-10p0-/12--10p0-10p0-10p0-/12-|

   G sharp
   Myself           I Know You Gotta Be
e|----------------------------------|
B|----------------------------------|
G|----------------------------------|
D|-10--10--10--/14--10--10--10--/14-|
A|-10--10--10--/14--10--10--10--/14-|
E|-8p0-8p0-8p0-/12--8p0-8p0-8p0-/12-|

   F                         G sharp
   Free                      So Free Yourself (2nd time "To Kill Yourself)
e|-------------------------------------------------------------------------|
B|-------------------------------------------------------------------------|
G|-------------------------------------------------------------------------|
D|-7-7-7-7-7--x(7)14--7-7-7-7-7-x(7)9--10---10---10--/14-10---10---10--/14-|
A|-7-7-7-7-7--x(7)14--7-7-7-7-7-x(7)9--10---10---10--/14-10---10---10--/14-|
E|-5-0-5-0-5--x(5)12--5-0-5-0-5-x(5)7--8p0--8p0--8p0-/12-8p0--8p0--8p0-/12-|

[Solos](two leads over bass driven chorus rhythm) not so much dueling,
more walzting leads

[Guitar I](the end notes are tremloe picked)
e|----------------------------------------------------------|
B|----------------------------------------------------------|
G|-11^(12)-11~~~-11^(12)-11~~~-11h12p9~~~-9/12\9~~~---------|
D|----------------------------------------------------------|
A|----------------------------------------------------------|
E|----------------------------------------------------------|

e|----------------------------------------|
B|----------------------------------------|
G|-12/6~~~~--12/6~~~~--5~~~~-5/12\5~~~~~--|
D|----------------------------------------|
A|----------------------------------------|
E|----------------------------------------|
After This point Guitar I plays chorus rhythm while other guitar pushes out
more lead

[Guitar II Lead]
e|-14^(15)-14~~-14^(15)-14~~~-14h15p14/12~~~--12/15\12~~~~--|
B|----------------------------------------------------------|
G|----------------------------------------------------------|
D|----------------------------------------------------------|
A|----------------------------------------------------------|
E|----------------------------------------------------------|

e|-15\9~~~~--15\9~~~~------------------------------|
B|--------------------10h12-12^(13)~~~-12-10/17~~~-|
G|-------------------------------------------------|
D|-------------------------------------------------|
A|-------------------------------------------------|
E|-------------------------------------------------|

 *Guitar I goes back to rhythm
e|-------------------------------------------------------------------------|
B|-------------------------------------------------------------------------|
G|-------------------------------------------------------------------------|
D|-7-7-7-7-7--x(7)14--7-7-7-7-7-x(7)9--10---10---10--/14-10---10---10--/14-|
A|-7-7-7-7-7--x(7)14--7-7-7-7-7-x(7)9--10---10---10--/14-10---10---10--/14-|
E|-5-0-5-0-5--x(5)12--5-0-5-0-5-x(5)7--8p0--8p0--8p0-/12-8p0--8p0--8p0-/12-|(3x)

[Guitar II]
e|-------15^-15^/9~~-15/9~~~--17h19-19^(20)-19-17-22^(24)-22^(24)~~~--|
B|-15h17--------------------------------------------------------------|
G|--------------------------------------------------------------------|
D|--------------------------------------------------------------------|
A|--------------------------------------------------------------------|
E|--------------------------------------------------------------------|

e|-\21~~~--21\12~~~--12/17~-15~-19~-12~--|
B|---------------------------------------|
G|---------------------------------------|
D|---------------------------------------|
A|---------------------------------------|
E|---------------------------------------|

e|-12h15p12/9~~~-12h15p12/8~~~-------------------------------|
B|------------------------------10h12-12^(13)-12-10/17~~~~~--|
G|-----------------------------------------------------------|
D|-----------------------------------------------------------|
A|-----------------------------------------------------------|
E|-----------------------------------------------------------|

[Guitar II]
e|------|
B|------|
G|------|
D|-3/9--|
A|-3/9--|
E|-1/7--|

************************************

| ~  Vibrato
| h  Hammer-on
| /  Slide up
| p  Pull-off
| \  Slide down


************************************
Suggest correction
comments
print report bad tab
13 comments total. Showing first comments.
0 reply
Kal Zakath 165 Mar 24, 2005 07:00 PM

It's 'come lets play alone' instead of 'carpets play along'

+1 reply
Gaea's_Leige 10 Mar 29, 2005 07:00 PM

yeah i agree with you about the song being the best off the album, and i def. think that it is a piano in the beggining. Well thanks for the tab it suits me pretty damn good. Goodjob

+1 reply
feesk8ordie 1,082 Mar 31, 2005 07:00 PM

very excellent tab

guest
You may want to rate the tab now too:
select rating
Wanna post a correction for this tab? Suggest correction