Oops, an error
Loading. Please wait.

The Lost Art Of Keeping A Secret Tab

version 5
version 5

Interactive

31,940 views 18 this week
1 commentread comment
1 2 3 4 5
x 9
add to favorites
launch autoscroll
font size
0
reset
how to read this tab
guitar tuner
×
Best way to learn
"The Lost Art Of Keeping A Secret"
Autoscroll
slow
fast
+/-
esc
set tempo
stop
Guitar 1 (C F Bb Eb G C) - 'Untitled'
Guitar 2 (C F Bb Eb G C) - 'Untitled'

[Intro]
Q=110(16=s16)
4/4
(Guitar 1)
          PM----------------------------------------------------------------|
  Q       e e e s s e e e s S    E E E S S E E E S S   E   E  E S S E E E S S
e|----|-----------------------|----------------------|-------------------------|
B|----|o----------------------|----------------------|-------------------------|
G|----|-----------------------|----------------------|-------------------------|
D|----|---9-9-9-9-x-9-9-9-9---|--9-9-9-9-x-9-9-9-9-x-|-8---8--8-8-x-8-8-8-8-x--|
A|----|o--7-7-7-7-x-7-7-7-7-0-|--9-9-9-9-x-9-9-9-9-x-|-8---8--8-8-x-8-8-8-8-x--|
E|----|-----------------------|--7-7-7-7---7-7-7-7---|-6---6--6-6---6-6-6-6----|

   Q       W                      W                         W
e|----|--12-------------------|----------------------|---(10)------------------|
B|----|o----------------------|-12-------------------|----11-------------------|
G|----|-----------------------|----------------------|-------------------------|
D|----|-----------------------|----------------------|-------------------------|
A|----|o----------------------|----------------------|-------------------------|
E|----|-----------------------|----------------------|-------------------------|

[Verse 1]
   PM---------|         PM--------------------------------------------------|
   e  e e s s s S E   S S E      E E E S S S S E E S S    E E E S S E E E S S
e|----------------------------|------------------------|-----------------------|
B|---------------------------o|------------------------|-----------------------|
G|----------------------------|------9-----------------|-----------------------|
D|--7--7-7-7-7-7---7b8-7-5----|--9-9-9-9---9---9-9-9---|------9---------9---x--|
A|--7--7-7-7-7-7-0---------7-o|--7-7-7-7-0-7-0-7-7-7-0-|--9-9-9-9---9-9-9-9----|
E|--5--5-5-5-5-5--------------|------------------------|--7-7-7-7-x-7-7-7-7----|

    W                             W                        W
e|-(9)------------------------|-12---------------------|-----------------------|
B|-10------------------------o|------------------------|-12--------------------|
G|----------------------------|------------------------|-----------------------|
D|----------------------------|------------------------|-----------------------|
A|---------------------------o|------------------------|-----------------------|
E|----------------------------|------------------------|-----------------------|

   PM------------------------------------------------------------------|
   E E E S S S S E E S S    E E E S S S S E S S E    E E E S S E E E S S
e|------------------------|------------------------|-----------------------|
B|------------------------|------------------------|-----------------------|
G|------------------------|------------------------|------9---------9------|
D|------8-----------------|------7-----------------|--9-9-9-9---9-9-9-9----|
A|--8-8-8-8-x-8-x-8-8-8-x-|--7-7-7-7-0-7---7-7---7-|--7-7-7-7-0-7-7-7-7-0--|
E|--6-6-6-6---6---6-6-6---|--5-5-5-5---5-0-5-5-0-5-|--0-0------------------|

    W                        W                        W
e|------------------------|------------------------|-12--------------------|
B|-11---------------------|-10---------------------|-----------------------|
G|------------------------|------------------------|-----------------------|
D|------------------------|------------------------|-----------------------|
A|------------------------|------------------------|-----------------------|
E|------------------------|------------------------|-----------------------|

   PM----------------------------------------------------------|     PM----|
   E E E S S S S E E S S    E E E S S E E E S S    E E E S S S S E   S S S S
e|------------------------|----------------------|----------------------------|
B|------------------------|----------------------|----------------------------|
G|------------------------|----------------------|----------------------------|
D|------9-----------9-----|------8---------8-----|------7-----7---7b8-7-5-----|
A|--9-9-9-9-x-9-7-9-9-9-8-|--8-8-8-8---8-8-8-8-x-|--7-7-7-7-7-x-x---------7-5-|
E|--7-7-7-7---7---7-7-7-6-|--6-6-6-6-0-6-6-6-6---|--5-5-5-5-------------------|

    W                        W                      W
e|------------------------|-10-------------------|--9-------------------------|
B|-12---------------------|-11-------------------|-10-------------------------|
G|------------------------|----------------------|----------------------------|
D|------------------------|----------------------|----------------------------|
A|------------------------|----------------------|----------------------------|
E|------------------------|----------------------|----------------------------|

    PM------------------------------------------
    E E E S S E E E S S    E E E S S E E E S S
e|----------------------|----------------------|
B|----------------------|----------------------|
G|------9---------------|----------------------|
D|--9-9-9-9---9-9-9-9-0-|------9---------9-----|
A|--7-7-7-7-0-7-7-7-7---|--9-9-9-9---9-9-9-9-x-|
E|----------------------|--7-7-7-7-x-7-7-7-7---|

    W                      W
e|-12-------------------|----------------------|
B|----------------------|-12-------------------|
G|----------------------|----------------------|
D|----------------------|----------------------|
A|----------------------|----------------------|
E|----------------------|----------------------|

    W                      W
e|----------------------|----------------------|
B|----------------------|----------------------|
G|----------------------|----------------------|
D|----------------------|----------------------|
A|----------------------|----------------------|
E|----------------------|----------------------|

 ---------------------------------------------------|
   E E E S S S S E E S S    E E E S S S S E   E   S S
e|------------------------|----------------------------|
B|------------------------|----------------------------|
G|------------------------|------------------------x-9-|
D|------------------------|------7-7---7---7---7---x-9-|
A|--8-8-8-8-x-8-x-8-8-8-x-|--7-7-7-7---7---7---7---x-7-|
E|--6-6-6-6---6---6-6-6---|--5-5-5-5-0-5-0-5---5-------|

    W                        W
e|------------------------|----------------------------|
B|-11---------------------|-10-------------------------|
G|------------------------|----------------------------|
D|------------------------|----------------------------|
A|------------------------|----------------------------|
E|------------------------|----------------------------|

[Guitar 2]
                                  <
    W                        Q   E E   S S S S S S S S
e|------------------------|----------------------------|
B|------------------------|----------------------------|
G|------------------------|----------------------------|
D|------------------------|------7-7---7-7-7-7-7-7-x---|
A|------------------------|------7-7---7-7-7-7-7-7-x---|
E|------------------------|------5-5---5-5-5-5-5-5-x-0-|

[Chorus]
     E E E E E E E E    E  E  E  E  E    E  E     S S
e|------------------|--------------------------------|
B|o-----------------|--------------------------------|
G|--9-9-9-9-9-9-9-9-|-16-16-16-16-16---16-16----16-x-|
D|--9-9-9-9-9-9-9-9-|-16-16-16-16-16---16-16----16-x-|
A|o-7-7-7-7-7-7-7-7-|-14-14-14-14-14---14-14----14-x-|
E|--0-0-0-0-0-0-0-0-|--------------------------------|

[Guitar 2]
    E E E E E E Q      E  E  Q     S S  E +S  S  E
e|------------------|--------------------------------|
B|o-----------------|--------------------------------|
G|--9-9-9-9-9-9-9---|--------------------------------|
D|--9-9-9-9-9-9-9---|--9--9--9-----9-9--9-(9)-9--9---|
A|o-7-7-7-7-7-7-7---|--9--9--9-----9-9--9-(9)-9--9---|
E|--0-0-0-0-0-0-0---|--7--7--7-----7-7--7-(7)-7--7---|

    E  E  E  E    S  S  E  E S   S    E  E  E  E  S S  E S S  E
e|---------------------------------|-----------------------------|
B|---------------------------------|----------------------------o|
G|-15-15-15-15---15-15-15-15-x--12-|-12-12-12-12-12-x-14-x-x-16--|
D|-15-15-15-15---15-15-15-15-x--12-|-12-12-12-12-12-x-14-x-x-16--|
A|-13-13-13-13---13-13-13-13-x--10-|-10-10-10-10-10-x-12-x-x-14-o|
E|---------------------------------|-----------------------------|

    E  E  E  S S  S  S  E  E E        E  E  E  E  E    E S S  E
e|---------------------------------|-----------------------------|
B|---------------------------------|----------------------------o|
G|---------------------------------|-----------------------------|
D|--8--8--8--8-8--8--8--8--8-8\----|--5--5--5--5--5----7------9--|
A|--8--8--8--8-8--8--8--8--8-8\----|--5--5--5--5--5----7---x--9-o|
E|--6--6--6--6-6--6--6--6--6-6\----|--3--3--3--3--3----5-0----7--|

[Verse 2]
(Guitar 1)
   PM------------------------------------------------------------------|
   E E E S S S S E E S S    E E E S S S S E E S S    E E E E S S E E S S
e|------------------------|------------------------|-----------------------|
B|------------------------|------------------------|-----------------------|
G|------------------------|------------------------|-----------------------|
D|--9-9-9-9---9---9-9-9-0-|------9-----------------|------8---------8------|
A|--7-7-7-7-x-7-x-7-7-7---|--9-9-9-9-x-9-x-9-9-9-x-|--8-8-8-8-8-x-8-8-8-x--|
E|------------------------|--7-7-7-7---7---7-7-7---|--6-6-6-6-6---6-6-6----|

    W                        W                        W
e|-12---------------------|------------------------|-----------------------|
B|------------------------|-12---------------------|-11--------------------|
G|------------------------|------------------------|-----------------------|
D|------------------------|------------------------|-----------------------|
A|------------------------|------------------------|-----------------------|
E|------------------------|------------------------|-----------------------|

    E E E S S S S E   S S S S
e|----------------------------|
B|----------------------------|
G|----------------------------|
D|------7---7-----7b8-7-5-----|
A|--7-7-7-7-x-x-5---------7-5-|
E|--5-5-5-5-------------------|

    W
e|----------------------------|
B|-10-------------------------|
G|----------------------------|
D|----------------------------|
A|----------------------------|
E|----------------------------|

    E E E S S S S E E S S    E E E S S S S E S S E
e|------------------------|-------------------------|
B|------------------------|-------------------------|
G|------9-9---------------|-------------------------|
D|--9-9-9-9---9---9-9-9-0-|------9---------9---x----|
A|--7-7-7-7-0-7-0-7-7-7---|--9-9-9-9-x-9-x-9-9-x-9--|
E|------------------------|--7-7-7-7---7---7-7---7--|

    W                        W
e|-12---------------------|-------------------------|
B|------------------------|-12----------------------|
G|------------------------|-------------------------|
D|------------------------|-------------------------|
A|------------------------|-------------------------|
E|------------------------|-------------------------|

    E E E E E E E S S    E E E S S S S E   S S S S    E E E E E E S S E
e|--------------------|----------------------------|--------------------|
B|--------------------|----------------------------|--------------------|
G|--------------------|----------------------------|--------------------|
D|------8-----------x-|------7---7-----7b8-7-5-----|--9-9-9-9-9-9-9---9-|
A|--8-8-8-8-8-8-8-8---|--7-7-7-7-x-x-5---------7-5-|--7-7-7-7-7-7-7-0-7-|
E|--6-6-6-6-6-6-6-6---|--5-5-5-5-------------------|--------------------|

    W                    W                            W
e|-10-----------------|--9-------------------------|-12-----------------|
B|-11-----------------|-10-------------------------|--------------------|
G|--------------------|----------------------------|--------------------|
D|--------------------|----------------------------|--------------------|
A|--------------------|----------------------------|--------------------|
E|--------------------|----------------------------|--------------------|

    E E E E E E E E    E E E E E E E E    E E E E S S E S S S S
e|------------------|------------------|------------------------|
B|------------------|------------------|------------------------|
G|------------------|------------------|------------------------|
D|------------------|------------------|----------x-------------|
A|--9-9-9-9-9-9-9-9-|--8-8-8-8-8-8-8-8-|--7-7-7-7-x-7-7-7-7-7-7-|
E|--7-7-7-7-7-7-7-7-|--6-6-6-6-6-6-6-6-|--5-5-5-5---5-5-5-5-5-5-|

    W                  W                  W
e|------------------|------------------|------------------------|
B|-12---------------|-11---------------|-10---------------------|
G|------------------|------------------|------------------------|
D|------------------|------------------|------------------------|
A|------------------|------------------|------------------------|
E|------------------|------------------|------------------------|

                                     <
    E E E S S E E E S S    E E E S S E E E E
e|----------------------|--------------------|
B|----------------------|--------------------|
G|----------------------|--------------------|
D|--9-9-9-9---9-9-9-9---|--------------------|
A|--7-7-7-7-0-7-7-7-7-0-|--9-9-9-9---9-9-9-9-|
E|--0-0-----------------|--7-7-7-7-x-7-7-7-7-|

    W                      W
e|-12-------------------|--------------------|
B|----------------------|-12-----------------|
G|----------------------|--------------------|
D|----------------------|--------------------|
A|----------------------|--------------------|
E|----------------------|--------------------|

[Chorus]
                                                  $
    E E E E E E E S S    E E S S S S E S S  E S S     E E E E E E E S S
e|--------------------|---------------------------|--------------------|
B|--------------------|---------------------------|o-------------------|
G|--------------------|---------------------------|--9-9-9-9-9-9-9-9---|
D|--------------------|--7-7-7-7-x-7-7-x-7--7-x-x-|--9-9-9-9-9-9-9-9-x-|
A|--8-8-8-8-8-8-8-8---|--7-7-7-7-x-7-7-x-7--7-x-x-|o-7-7-7-7-7-7-7-7-x-|
E|--6-6-6-6-6-6-6-6-0-|--5-5-5-5-x-5-5-x-5--5-x-x-|--0-0-0-0-0-0-0-0---|

    W                    W                            W
e|-10-----------------|--9------------------------|--------------------|
B|-11-----------------|-10------------------------|o-------------------|
G|--------------------|---------------------------|--------------------|
D|--------------------|---------------------------|--------------------|
A|--------------------|---------------------------|o-------------------|
E|--------------------|---------------------------|--------------------|

[Guitar 2]
                                           ~~
    W                    Q   E   E   Q      Q         E E E E E E Q
e|--------------------|---------------------------|--------------------|
B|--------------------|---------------------------|o-------------------|
G|--------------------|---------------------------|--9-9-9-9-9-9-9-----|
D|--------------------|---------------------------|--9-9-9-9-9-9-9-----|
A|--------------------|----------xS==5s====15-----|o-7-7-7-7-7-7-7-----|
E|--------------------|---------------------------|--0-0-0-0-0-0-0-----|

    E  E  E  S  S  S  S  E  E     S S
e|------------------------------------|
B|------------------------------------|
G|-16-16-16-16-16-16-16-16-16----16-x-|
D|-16-16-16-16-16-16-16-16-16----16-x-|
A|-14-14-14-14-14-14-14-14-14----14-x-|
E|------------------------------------|

[Guitar 2]
   E  E  Q        S  S  E +S  S  E
e|------------------------------------|
B|------------------------------------|
G|------------------------------------|
D|--9--9--9--------9--9--9-(9)-9--9---|
A|--9--9--9--------9--9--9-(9)-9--9---|
E|--7--7--7--------7--7--7-(7)-7--7---|

    E  E  E  S  S  S  S  E  E S   S    E  E  E  S  S  S S  E S S  E
e|----------------------------------|---------------------------------|
B|----------------------------------|--------------------------------o|
G|-15-15-15-15-15-15-15-15-15-x--12-|-12-12-12-12-12-12-x-14-x-x-16---|
D|-15-15-15-15-15-15-15-15-15-x--12-|-12-12-12-12-12-12-x-14-x-x-16---|
A|-13-13-13-13-13-13-13-13-13-x--10-|-10-10-10-10-10-10-x-12-x-x-14--o|
E|----------------------------------|---------------------------------|

    E  E  E  S  S  S  S  E  E E        E  E  E  E     E    E S S  E
e|----------------------------------|---------------------------------|
B|----------------------------------|--------------------------------o|
G|----------------------------------|---------------------------------|
D|--8--8--8--8--8--8--8--8--8-8\----|--5--5--5--5-----5----7------9---|
A|--8--8--8--8--8--8--8--8--8-8\----|--5--5--5--5-----5----7---x--9--o|
E|--6--6--6--6--6--6--6--6--6-6\----|--3--3--3--3-----3----5-0----7---|

   E E E E   E   E E S S    E  E  E  E    S  S  E  E  S S
e|-----------------------|--------------------------------|
B|-----------------------|--------------------------------|
G|-9-9-9-9---9---9-9-9---|-15-15-15-15---15-15-15-15-15---|
D|-9-9-9-9---9---9-9-9-x-|-15-15-15-15---15-15-15-15-15-x-|
A|-7-7-7-7---7---7-7-7-x-|-13-13-13-13---13-13-13-13-13-x-|
E|-0-0-0-0---0---0-0-0---|--------------------------------|

   E E E S S S S E E S S    E  E  E  S S  S  S  E  E  S S
e|-----------------------|--------------------------------|
B|-----------------------|--------------------------------|
G|-9-9-9-9-9-9-9-9-9-9---|--------------------------------|
D|-9-9-9-9-9-9-9-9-9-9-x-|--8--8--8--8-8--8--8--8--8--8-5-|
A|-7-7-7-7-7-7-7-7-7-7-x-|--8--8--8--8-8--8--8--8--8--8-5-|
E|-0-0-0-0-0-0-0-0-0-0---|--6--6--6--6-6--6--6--6--6--6-3-|

                                                         (To Coda)
    E  E  E  S  S  S  S  E  E S  S    E  E  E S  S  E  E  E S S
e|---------------------------------|-----------------------------|
B|---------------------------------|-----------------------------|
G|-12-12-12-12-12-12-12-12-12---11-|-11-11-11---10-10-10-10---9--|
D|-12-12-12-12-12-12-12-12-12-x-11-|-11-11-11-x-10-10-10-10-x-9--|
A|-10-10-10-10-10-10-10-10-10-x--9-|--9--9--9-x--8--8--8--8-x-7--|
E|---------------------------------|-----------------------------|

    E  E  E  S  S  S  S  E  E S  S    E  E  E S  S  E  E  E S S
e|---------------------------------|-----------------------------|
B|---------------------------------|-----------------------------|
G|---------------------------------|-----------------------------|
D|--5--5--5--5--5--5--5--5--5-5----|--4--4--4-4-----3--3--3-3----|
A|--5--5--5--5--5--5--5--5--5-5--x-|--4--4--4-4--x--3--3--3-3-x--|
E|--3--3--3--3--3--3--3--3--3-3--x-|--2--2--2-2--x--1--1--1-1-x--|

   S S E E S S S S E E S S    E  E  E  S  S  S  S  E  E     S S
e|-------------------------|------------------------------------|
B|-------------------------|------------------------------------|
G|-9-9-9-9-9-9-9-9-9-9-9---|-16-16-16-16-16-16-16-16-16----16---|
D|-9-9-9-9-9-9-9-9-9-9-9-x-|-16-16-16-16-16-16-16-16-16----16-x-|
A|-7-7-7-7-7-7-7-7-7-7-7-x-|-14-14-14-14-14-14-14-14-14----14-x-|
E|-0-0-0-0-0-0-0-0-0-0-0---|------------------------------------|

   E   E E E   E   E Q        E  E  Q        S  S  E +S  S  E
e|-------------------------|------------------------------------|
B|-------------------------|------------------------------------|
G|-9---9-9-9---9---9-9-----|------------------------------------|
D|-9---9-9-9---9---9-9-----|--9--9--9--------9--9--9-(9)-9--9---|
A|-7---7-7-7---7---7-7-----|--9--9--9--------9--9--9-(9)-9--9---|
E|-0---0-0-0---0---0-0-----|--7--7--7--------7--7--7-(7)-7--7---|

    E  E  E  S  S  S  S  E  E S   S    E  E  E  E  S S  E S  S  E
e|----------------------------------|-------------------------------|
B|----------------------------------|-------------------------------|
G|-15-15-15-15-15-15-15-15-15----12-|-12-12-12-12-12-x-14-x-16-16---|
D|-15-15-15-15-15-15-15-15-15-x--12-|-12-12-12-12-12-x-14-x-16-16---|
A|-13-13-13-13-13-13-13-13-13-x--10-|-10-10-10-10-10-x-12-x-14-14---|
E|----------------------------------|-------------------------------|

    E  E  E  S  S  S  S  E  E E        E  E  E  E  E    E S  S  E
e|----------------------------------|-------------------------------|
B|----------------------------------|-------------------------------|
G|----------------------------------|-------------------------------|
D|--8--8--8--8--8--8--8--8--8-8\----|--5--5--5--5--5----7-------9---|
A|--8--8--8--8--8--8--8--8--8-8\----|--5--5--5--5--5----7----x--9---|
E|--6--6--6--6--6--6--6--6--6-6\----|--3--3--3--3--3----5-0-----7---|

[Bridge]
      E  E  E  S  S  S  S  E  E  S  S
e|-----------------------------------|
B|o----------------------------------|
G|--15-15-15-15-15-15-15-15-15-15-15-|
D|--15-15-15-15-15-15-15-15-15-15-15-|
A|o-13-13-13-13-13-13-13-13-13-13-13-|
E|-----------------------------------|

      E  E  E  S  S  S  S  E  E  S  S
e|-----------------------------------|
B|o----------------------------------|
G|-----------------------------------|
D|---8--8--8--8--8--8--8--8--8--8--8-|
A|o--8--8--8--8--8--8--8--8--8--8--8-|
E|---6--6--6--6--6--6--6--6--6--6--6-|

    E  E  E  S  S  S  S  E  E S  S    E  E  E  S  S  S  S  E  E  S  S
e|---------------------------------|-----------------------------------|
B|---------------------------------|-----------------------------------|
G|-15-15-15-15-15-15-15-15-15---17-|-17-17-17-17-17-17-17-17-17-17-17--|
D|-15-15-15-15-15-15-15-15-15-x-17-|-17-17-17-17-17-17-17-17-17-17-17--|
A|-13-13-13-13-13-13-13-13-13-x-15-|-15-15-15-15-15-15-15-15-15-15-15--|
E|---------------------------------|-----------------------------------|

    E  E  E  S  S  S  S  E  E S  S    E  E  E  S  S  S  S  E  E  S  S
e|---------------------------------|-----------------------------------|
B|---------------------------------|-----------------------------------|
G|---------------------------------|-----------------------------------|
D|--8--8--8--8--8--8--8--8--8-8-10-|-10-10-10-10-10-10-10-10-10-10-10--|
A|--8--8--8--8--8--8--8--8--8-8-10-|-10-10-10-10-10-10-10-10-10-10-10--|
E|--6--6--6--6--6--6--6--6--6-6--8-|--8--8--8--8--8--8--8--8--8--8--8--|

    E  E  E  S  S  S  S  E  E S S    e  e  e  e    e    e  e  e
e|--------------------------------|-------------------------------|
B|--------------------------------|-------------------------------|
G|-17-17-17-17-17-17-17-17-17-----|-16-16-16-16---16---16-16-16---|
D|-17-17-17-17-17-17-17-17-17-x-x-|-------------------------------|
A|-15-15-15-15-15-15-15-15-15-x-x-|-14-14-14-14---14---14-14-14---|
E|--------------------------------|-------------------------------|

    E  E  E  S  S  S  S  E  E S S    e  e  e  S S  S S  E  e  S S
e|--------------------------------|-------------------------------|
B|--------------------------------|-------------------------------|
G|--------------------------------|-16-16-16-16-x-16-x-16-16-16-x-|
D|-10-10-10-10-10-10-10-10-10-x-x-|-------------x----x----------x-|
A|-10-10-10-10-10-10-10-10-10-x-x-|-14-14-14-14-x-14-x-14-14-14-x-|
E|--8--8--8--8--8--8--8--8--8-----|-------------------------------|

    e  e  e  e    e    e    e E       E  S  S  E  E          H
e|-------------------------------|-----------------------------------------------|
B|------------------------------o|-----------------------------------------------|
G|-16-16-16-16---16---16---16----|--17-17-17-17-17-------------------------------|
D|-------------------------------|--17-17-17-17-17-------------------------------|
A|-14-14-14-14---14---14---14---o|--15-15-15-15-15-------------------------------|
E|-------------------------------|-----------------------------------------------|

    e  e  e  S S  S S  S S  e E       E  S  S  E  e  a       q     a       q
e|-------------------------------|-----------------------------------------------|
B|------------------------------o|---------------0---------11------------12------|
G|-16-16-16-16-x-16-x-16-x-16----|---------------0-14b16==(14)r--15b17==(15)r----|
D|-------------x----x----x-------|--10-10-10-10----------------------------------|
A|-14-14-14-14-x-14-x-14-x-14---o|--10-10-10-10----------------------------------|
E|-------------------------------|---8--8--8--8----------------------------------|

[Solo]
(Guitar 2)
    H         +E   E  q        Q.       +E     q      q
e|-12--------(12)----15-----|-13-------(13)\----------------|
B|-15b17=====(15)r15-18b20--|-16b18====(16)r\-11-----12-----|
G|--------------------------|-----------------14b16--15b17--|
D|--------------------------|-------------------------------|
A|--------------------------|-------------------------------|
E|--------------------------|-------------------------------|

    W                          W
e|--------------------------|-------------------------------|
B|--------------------------|-------------------------------|
G|--------------------------|-------------------------------|
D|--------------------------|--9----------------------------|
A|--7-----------------------|-------------------------------|
E|--0-----------------------|--7----------------------------|

    W                          W
e|-12-----------------------|-------------------------------|
B|--------------------------|-12----------------------------|
G|--------------------------|-------------------------------|
D|--------------------------|-------------------------------|
A|--------------------------|-------------------------------|
E|--------------------------|-------------------------------|

             ~~~~
    Q       +Q    +E   +E   q        Q.       +E     q      q
e|-12------(12)--(12)------15-----|-13-------(13)\----------------|
B|-15b17===(15)--(15)r(15)-18b20--|-16b18====(16)r\-11-----12-----|
G|--------------------------------|-----------------14b16--15b17--|
D|--------------------------------|-------------------------------|
A|--------------------------------|-------------------------------|
E|--------------------------------|-------------------------------|

    W                                W
e|--------------------------------|-------------------------------|
B|--------------------------------|-------------------------------|
G|--------------------------------|-------------------------------|
D|--8-----------------------------|--7----------------------------|
A|--------------------------------|-------------------------------|
E|--6-----------------------------|--5----------------------------|

    W                                W
e|--------------------------------|-------------------------------|
B|-11-----------------------------|-10----------------------------|
G|--------------------------------|-------------------------------|
D|--------------------------------|-------------------------------|
A|--------------------------------|-------------------------------|
E|--------------------------------|-------------------------------|

                                ~~~~~
    Q       +Q    +Q    +Q      H.        Q
e|-12------(12)--(12)--(12)--|-15------------|
B|-15b17===(15)--(15)r=(15)--|-18b20---------|
G|---------------------------|---------------|
D|---------------------------|---------------|
A|---------------------------|---------------|
E|---------------------------|---------------|

    W                           W
e|---------------------------|---------------|
B|---------------------------|---------------|
G|---------------------------|---------------|
D|---------------------------|--9------------|
A|--7------------------------|---------------|
E|--0------------------------|--7------------|

    W                           W
e|-12------------------------|---------------|
B|---------------------------|-12------------|
G|---------------------------|---------------|
D|---------------------------|---------------|
A|---------------------------|---------------|
E|---------------------------|---------------|

                                               (D.S. al Coda)
                                                         ~~
    Q       +Q     Q       +Q       Q       +E.  S  E E  Q
e|-18------(18)---18------(18)---|-17------(17)-------------|
B|-21b23===(21)r--21b23===(21)r--|-20b22===(20)r-x----------|
G|-------------------------------|---------------x--x-------|
D|-------------------------------|--------------------------|
A|-------------------------------|-----------------/3s==15--|
E|-------------------------------|-----------------/3s==15--|
                                   H               Q    Q

    W                               W
e|-------------------------------|--------------------------|
B|-------------------------------|--------------------------|
G|-------------------------------|--------------------------|
D|--8----------------------------|--7-----------------------|
A|-------------------------------|--------------------------|
E|--6----------------------------|--5-----------------------|

    W                               W
e|-10----------------------------|--9-----------------------|
B|-11----------------------------|-10-----------------------|
G|-------------------------------|--------------------------|
D|-------------------------------|--------------------------|
A|-------------------------------|--------------------------|
E|-------------------------------|--------------------------|

[Guitar 1]
   E E E E   E   E E S S    E  E  E  S  S  S  S  E  E  S S
e|-----------------------|---------------------------------|
B|-----------------------|---------------------------------|
G|-9-9-9-9---9---9-9-9---|-15-15-15-15-15-15-15-15-15-15---|
D|-9-9-9-9---9---9-9-9-x-|-15-15-15-15-15-15-15-15-15-15-x-|
A|-7-7-7-7---7---7-7-7-x-|-13-13-13-13-13-13-13-13-13-13-x-|
E|-0-0-0-0---0---0-0-0---|---------------------------------|

[Guitar 2]
   E E E S S S S E E S S    E  E  E  S  S  S  S  E  E  S S
e|-----------------------|---------------------------------|
B|-----------------------|---------------------------------|
G|-9-9-9-9-9-9-9-9-9-9---|---------------------------------|
D|-9-9-9-9-9-9-9-9-9-9-x-|--8--8--8--8--8--8--8--8--8--8-5-|
A|-7-7-7-7-7-7-7-7-7-7-x-|--8--8--8--8--8--8--8--8--8--8-5-|
E|-0-0-0-0-0-0-0-0-0-0---|--6--6--6--6--6--6--6--6--6--6-3-|

    E  E  E  S  S  S  S  E  E S  S    E  E  E S  S  E  E  E S S
e|---------------------------------|-----------------------------|
B|---------------------------------|-----------------------------|
G|-12-12-12-12-12-12-12-12-12---11-|-11-11-11---10-10-10-10---9--|
D|-12-12-12-12-12-12-12-12-12-x-11-|-11-11-11-x-10-10-10-10-x-9--|
A|-10-10-10-10-10-10-10-10-10-x--9-|--9--9--9-x--8--8--8--8-x-7--|
E|---------------------------------|-----------------------------|

    E  E  E  S  S  S  S  E  E S  S    E  E  E S  S  E  E  E S S
e|---------------------------------|-----------------------------|
B|---------------------------------|-----------------------------|
G|---------------------------------|-----------------------------|
D|--5--5--5--5--5--5--5--5--5-5----|--4--4--4-4-----3--3--3-3----|
A|--5--5--5--5--5--5--5--5--5-5--x-|--4--4--4-4--x--3--3--3-3-x--|
E|--3--3--3--3--3--3--3--3--3-3--x-|--2--2--2-2--x--1--1--1-1-x--|

[Outro]
   E   E Q   E  E  E  E   E E Q   E    E  E  E
e|----------------------|----------------------|
B|----------------------|----------------------|
G|-9---9-9\----12-14-16-|-9-9-9\------12-14-16-|
D|-9---9-9\-------------|-9-9-9\---------------|
A|-7---7-7\----10-12-14-|-7-7-7\------10-12-14-|
E|-0---0-0--------------|-0-0-0----------------|

   S S E Q   E  E  E  E   E E Q   S S  E  E  E
e|----------------------|----------------------|
B|----------------------|----------------------|
G|-------9\-------------|-----9\---------------|
D|-9-9-9-9\-----5--7--9-|-9---9\-------5--7--9-|
A|-7-7-7-7\-----5--7--9-|-7---7\-------5--7--9-|
E|-0-0-0-0------3--5--7-|-0-0-0---0-0--3--5--7-|

   E E    Q        E    E  E  E   E E    Q     E  E  E  E   W
e|------------------------------|-------------------------|------|
B|------------------------------|-------------------------|------|
G|-9-9----9\-----------12-14-16-|-9-9----9\------12-14-16-|-9----|
D|-9-9----9\--------------------|-9-9----9\---------------|-9----|
A|-7-7----7\-----------10-12-14-|-7-7----7\------10-12-14-|-7----|
E|-0-0----0---------------------|-0-0----0----------------|-0----|

   E S s  E   +E   S S  E  E  E   E S S  q     E  E  E  E   W
e|------------------------------|-------12----------------|------|
B|-------12--(12)\--------------|-------15b17-------------|------|
G|-9-9-9-12--(12)\--------------|-------------------------|------|
D|-9-9-9-12--(12)\------5--7--9-|-----------------5--7--9-|------|
A|-7-7-7-----------0-x--5--7--9-|-7-7-7--------0--5--7--9-|-7----|
E|-0---------------0-x--3--5--7-|-0-0-0--------0--3--5--7-|-0----|


************************************

| x    Dead note
| (n)  Ghost note
| b    Bend
| PM   Palm mute
| \    Slide down
| ~    Vibrato
| /    Slide up
| s    Slap

************************************
Suggest correction
comments
print report bad tab
1 comment total.
0 reply
NzT 101 May 18, 2011 03:59 AM

Perfect. At least 1 person got the solo right haha

guest
You may want to rate the tab now too:
select rating
Wanna post a correction for this tab? Suggest correction