Oops, an error
Loading. Please wait.

The Vampyre Of Time And Memory bass

version 1
version 1

Whole song

Interactive

13,527 views 45 this week
1 commentread comment
1 2 3 4 5
x 17
add to favorites
×
Save as Personal and add changes to this tab that will be seen only by you. Learn more ›
×
You can save this tab as Personal to edit and correct it or add notes. All changes will be seen only by you. Learn more »
launch autoscroll
font size
0
reset
guitar tuner
backing track
0:00
0:00
edit
Autoscroll
slow
fast
+/-
esc
set tempo
stop
Author
Unregistered
Tuning: standard

(Bass comes in at 01:13)
G|-------------------------|-----------------------|------------------------|------------------------|
D|-------------12----15-12-|10-----------10--------|------------12----15-12-|10----------10----10-12-|
A|----------12----12-------|----------12----12-8-0-|---------12----12-------|---------12----12-------|
E|10-----------------------|-----------------------|10----------------------|------------------------|

G|-------------------------|-----------------------|------------------------|------------------------|
D|-------------12----15-14-|10-----------10--------|------------12----15-14-|10----10-10-10-10-10-10\|
A|----------12----12-------|----------12----12-8-0-|---------12----12-------|------------------------|
E|10-----------------------|-----------------------|10----------------------|------------------------|

[Verse] 
(1:41)
G|------------.-----------|-------------.----------|---------.---------|--------------------|
D|-----------12-12--------|10----------10-10----10-|9--------9-9-----9-|.---------.---------|
A|--------12-----------12-|---------10-------------|------10-----------|8-8----8/12-12------|
E|10----------------------|------------------------|-------------------|-----------------13\|

G|------------.-----------|-------------.----------|-------------------|--------------------|
D|-----------12-12-----12-|10----------10-10----10-|9----------------9-|.---------.---------|
A|--------12--------------|---------10-------------|------7--.---------|8-8----8/12-12------|
E|10----------------------|------------------------|---------7-7-------|-----------------13\|

G|------------.-----------|------------.-----------|---------------------|-----------------|
D|-----------12-12--------|-----------14-14-----15-|-----------.---------|--------.--------|
A|--------12--------------|--------14--------------|13--------13-13----15|-8------8-8-----8|
E|10-------------------10-|12----------------------|--------13-----------|-------8---------|

G|------------------------|---------------------|--------------------|-----------------------|
D|------------------------|8--------8-8------10-|--------------------|-----------------------|
A|10---------10-10-----10-|--------8------------|8--------8-8------8-|10--------10-10------10|
E|--------10--------------|---------------------|--------8-----------|--------10-------------|

G|---------------------|------------------------|-------------------|------------|------|------|
D|8---------8-8------8-|10---------10-10-----12-|9--------9-9-----9-|8-----10h12-|------|------|
A|--------8------------|--------10--------------|-------9-----------|------------|11----|12----|
E|---------------------|------------------------|-------------------|------------|------|------|

G|------------------------|
D|---8p7-5----------------|
A|---------/8-7-5-4-------|
E|------------------5-5---|

(02:58)
G|----------------------------|------------------------------14-14-14-14-12-10-9-|
D|8----10h12------------------|8-----10h12---------------------------------------|
A|------------11-----12-------|-------------11-----12----------------------------|
E|----------------------------|--------------------------------------------------|

G|10-------------------------------|----------------------------|----------------------------|
D|---8------10h12------------------|8------10h12----------------|8-------10h12---------------|
A|------------------11-----12------|--------------11----12------|---------------11-----12----|
E|---------------------------------|----------------------------|----------------------------|



************************************

| \  Slide down
| /  Slide up
| h  Hammer-on
| p  Pull-off
 

************************************
Suggest correction
Creating personal tab
Creating personal tab
You can edit any tab online and save it as your Personal.

You can edit, replace or remove any tab part or add personal notes – all changes will be seen only by you.

Personal tabs can be accessed anytime from any device, even offline.
Learn more »
comments
print report bad tab
1 comment total.
0 reply
tydogg2443 522 Feb 09, 2014 11:34 PM

A few corrections for the first section(1:13-1:40)...

G|-------------------------|-------------------------|------------------------|------------------------|
D|-------------12----14-12-|10-----------10----------|------------12----15-14-|10----------10----10-12-|
A|----------12----12-------|----------12----12-------|---------12----12-------|---------12----12-------|
E|10-----------------------|-------------------13-12-|10----------------------|------------------------|

G|-------------------------|-------------------------|------------------------|------------------------|
D|-------------12----15-14-|10-----------10----------|------------12----15-14-|10----10-10-10-10-10-10\|
A|----------12----12-------|----------12----12-------|---------12----12-------|------------------------|
E|10-----------------------|-------------------13-12-|10----------------------|------------------------|

(Note for First Section: Alternatively for the second bar of each line, you can stay on the A-string and play 8-7 rather than 13-12 on the E-string, which would more closely resemble the original tab.)

Second section (1:41-2:57) seems to be fairly accurate to me. But there are two missing fills in the outro(2:58-END) I've yet to figure out.

guest
Wanna post a correction for this tab? Suggest correction