Oops, an error
Loading. Please wait.

The Vampyre Of Time And Memory tab

version 1
version 1

Whole song

Interactive

28,108 views 39 this week
3 commentsread comments
1 2 3 4 5
x 7
add to favorites
×
Save as Personal and add changes to this tab that will be seen only by you. Learn more ›
×
You can save this tab as Personal to edit and correct it or add notes. All changes will be seen only by you. Learn more »
launch autoscroll
font size
0
reset
how to read this tab
guitar tuner
backing track
0:00
0:00
edit
Autoscroll
slow
fast
+/-
esc
set tempo
stop
Author
-------------------------------------------------------------------------------
        Vampyre of Time and Memory - Queens of the Stone Age
-------------------------------------------------------------------------------
Tabbed by: bluremi

Tuning: standard

[Intro]

    Dm                     F
E|--------5---------5----|---------5----3----1-3-|
B|--------6---------6----|-----------------------|
G|-----------------------|---------5-------------|
D|-----------------------|-----------------------|
A|-5-----------5-5----5--|-3---------------------|
E|-----------------------|-----------------------|


   G                       F           A
E|--------3---------3----|-----------------------|
B|--------3---------3----|-----------------------|
G|-----------------------|---------2---------6---|
D|-----------------------|---------3---------7---|
A|-2-----------2-2-----2-|-----------------------|
E|-----------------------|-1---------1-5-------5-| repeat

[Verse]
       Dm
I want God to come 
    C
And take me home 
        G                 F        A
Coz I'm all alone in this crowd 
        Dm
Who are you to me? 
            C
Who'm I s'posed to be? 
      G             F       A
Not exactly sure anymore 
                    Dm
Mmm where's this going to? 
      C
Can I follow through? 
        G                  F        A
Or just follow you, for a while

[Chorus]
     Bb       E7            A
Does anyone   ever get this right? 
E|-----------------------|-----------------------|
B|--------6--------------|-----------------------|
G|--------7----------7---|---------6---------6---|
D|-------------------6---|---------7---------7---|
A|-----------------------|-----------------------|
E|-6---------6-4-------4-|-5-----------5-5-----5-|


   Bb            E7        A
I feel           no        love 
E|-----------------------|-----------------------|
B|--------6--------------|-----------------------|
G|--------7----------7---|---------6-------------|
D|-------------------6---|---------7-------------|
A|----------7~8----------|-----------------------|
E|-6------------4------4-|-5-----------5---------|


* * * * Guitar Solo Break * * * *
Dm  F#7  Dm  F#7  Dm  F#7


    Dm                     F7
E|--------5---------5----|---------5----3----1-3-|
B|--------6---------6----|-----------------------|
G|-----------------------|---------5-------------|
D|-----------------------|-----------------------|
A|-5---------3~5-5----5--|-3---------------------|
E|-----------------------|-----------------------|


   G                       F           A
E|--------3---------3----|-----------------------|
B|--------3---------3----|-----------------------|
G|-----------------------|---------2---------6---|
D|-----------------------|---------3---------7---|
A|-2---------1~2-2-----2-|-----------------------|
E|-----------------------|-1---------1-5-------5-|

[Verse]
           Dm
And all confusion here 
      C
It is as I feared 
      G                       F          A
The illusion that you feel is real 
      Dm                   C
To be vulnerable is needed most of all 
         G                   F           A
If you intend to truly fall apart 

[Chorus]
              Dm
You think the worst of all 
    E
Is far behind 
       Bb               F              G
The Vampyre of time and memories, has died 
       Bb                F                  G
I've survived, I speak I breathe, I'm incomplete 
       Bb      C            G                Bb    E7    A
I'm alive, hurray, you're wrong again coz' I feel no love 
       Bb   E7             A
Does anyone ever get this right? 
       Bb   E7             A
Does anyone ever get this right? 


* * * * Guitar Solo Break * * * *
Bb  E7 A  Bb E7 A

       Bb   E7             A
Does anyone ever get this right? 
  B7   E7  A
I feel no love 
  B7   E7  A
I feel no love

            
            
Suggest correction
Creating personal tab
Creating personal tab
You can edit any tab online and save it as your Personal.

You can edit, replace or remove any tab part or add personal notes – all changes will be seen only by you.

Personal tabs can be accessed anytime from any device, even offline.
Learn more »
comments
print report bad tab
3 comments total.
+1 reply
Angry-Bambi 107 Jun 02, 2013 06:56 AM

There's a few things I can see that are wrong. First and foremost, I'm not sure about either of those F#s. The F#7 doesn't sound right to me and the F# (above "crowd") should almost definitely be an F in my opinion. Good to have a tab up for this all the same.

0 reply
nouserforaname 10 Jun 05, 2013 06:47 PM

verse is

e---------------------------------------------
b---10-----10------10---8----8----8-------8---
g---10-----10------10-----10------7-------7---
d--0---0-0------------------------------------
a---------------------------------------------
E----------------8--------------7-----7-7----- then F and A (same picking pattern)

guest
You may want to rate the tab now too:
select rating
Wanna post a correction for this tab? Suggest correction