Oops, an error
Loading. Please wait.

The Vampyre Of Time And Memory Ukulele Chords

version 1
version 1

Whole song

Interactive

1,213 views 3 this week
no commentswrite comment
1 2 3 4 5
worth learning
x 2
add to favorites
launch autoscroll
font size
0
reset
transpose
0
reset
- display chords -
guitar tuner
Tab Pro tools
  • play this tab
  • loop segment
  • change instrument
  • show fretboard
  • metronome
Autoscroll
slow
fast
+/-
esc
set tempo
stop
-------------------------------------------------------------------------------
        Vampyre of Time and Memory - Queens of the Stone Age
-------------------------------------------------------------------------------
Tabbed by: bluremi

Tuning: standard

Intro

    Dm                     F
E|--------5---------5----|---------5----3----1-3-|
B|--------6---------6----|-----------------------|
G|-----------------------|---------5-------------|
D|-----------------------|-----------------------|
A|-5-----------5-5----5--|-3---------------------|
E|-----------------------|-----------------------|


   G                       F           A
E|--------3---------3----|-----------------------|
B|--------3---------3----|-----------------------|
G|-----------------------|---------2---------6---|
D|-----------------------|---------3---------7---|
A|-2-----------2-2-----2-|-----------------------|
E|-----------------------|-1---------1-5-------5-| repeat


       Dm
I want God to come 

    F7
And take me home 

        G                 F        A
Coz I'm all alone in this crowd 

        Dm
Who are you to me? 

            F7
Who'm I s'posed to be? 

      G             F       A
Not exactly sure anymore 

                    Dm
Mmm where's this going to? 

      F7
Can I follow through? 

        G                  F        A
Or just follow you, for a while 

     Bb       E7            A
Does anyone   ever get this right? 
E|-----------------------|-----------------------|
B|--------6--------------|-----------------------|
G|--------7----------7---|---------6---------6---|
D|-------------------6---|---------7---------7---|
A|-----------------------|-----------------------|
E|-6---------6-4-------4-|-5-----------5-5-----5-|


   Bb            E7        A
I feel           no        love 
E|-----------------------|-----------------------|
B|--------6--------------|-----------------------|
G|--------7----------7---|---------6-------------|
D|-------------------6---|---------7-------------|
A|----------7~8----------|-----------------------|
E|-6------------4------4-|-5-----------5---------|


* * * * Guitar Solo Break * * * *
Dm  F#7  Dm  F#7  Dm  F#7


    Dm                     F7
E|--------5---------5----|---------5----3----1-3-|
B|--------6---------6----|-----------------------|
G|-----------------------|---------5-------------|
D|-----------------------|-----------------------|
A|-5---------3~5-5----5--|-3---------------------|
E|-----------------------|-----------------------|


   G                       F           A
E|--------3---------3----|-----------------------|
B|--------3---------3----|-----------------------|
G|-----------------------|---------2---------6---|
D|-----------------------|---------3---------7---|
A|-2---------1~2-2-----2-|-----------------------|
E|-----------------------|-1---------1-5-------5-|

And all confusion here 
It is as I feared 
The illusion that you feel is real 
To be vulnerable is needed most of all 
If you intend to truly fall apart 


              Dm
You think the worst of all 

    E
Is far behind 

       Bb               F              G
The Vampyre of time and memories, has died 

       Bb                F                  G
I've survived, I speak I breathe, I'm incomplete 

       Bb      C            G                Bb    E7    A
I'm alive, hurray, you're wrong again coz' I feel no love 

       Bb   E7             A
Does anyone ever get this right? 

       Bb   E7             A
Does anyone ever get this right? 


* * * * Guitar Solo Break * * * *
Bb  E7 A  Bb E7 A


       Bb   E7             A
Does anyone ever get this right? 

  B7   E7  A
I feel no love 

  B7   E7  A
I feel no love
comments
We did not receive enough feedback on this tab! Please rate:
print report bad tab
1 2 3 4 5
I want to post or [tab]
guest
You may want to rate the tab now too:
select rating
Please do not post tabs as comments. Select "correction" instead!