Oops, an error
Loading. Please wait.

The Way You Used To Do bass

version 1
version 1

Whole song

  • I'm not 100% on all of the fills, but hopefully a live video will clear them up.

Interactive

3,064 views 201 this week
no commentswrite comment
1 2 3 4 5
x 3
add to favorites
×
Save as Personal and add changes to this tab that will be seen only by you. Learn more ›
×
You can save this tab as Personal to edit and correct it or add notes. All changes will be seen only by you. Learn more »
launch autoscroll
font size
0
reset
guitar tuner
edit
Autoscroll
slow
fast
+/-
esc
set tempo
stop
About this tab version
I'm not 100% on all of the fills, but hopefully a live video will clear them up. Was this info helpful? Yes No
[Intro] (Bass enters at 00:48)

G|---------------------------------|
D|---------------------------------|
A|-17\(5)--------------------------|
D|---------------------------------|


[Verse]

G|---------------------------------|-------------------------------------|
D|---------------------------------|-------------------------------------|
A|---------------------------------|---------------------------10-10--10-|
D|-5---5-------5-------5-------5---|-----5-------5-------5---------------|

G|---------------------------------|-------------------------------------|
D|---------------------------------|-------------------------------------|
A|-10\-----------------------------|---------------------------10-10--10-|
D|-----5-------5-------5-------5---|-----5-------5-------5---------------|

G|---------------------------------|------------------------------------|
D|---------------------------------|------------------------------------|
A|-10\-----------------------------|------------------------------------|
D|-----5-------5-------5-------5---|-----5-------5----------------------|

G|------------------------------|------------------------------|
D|------------------------------|------------------------------|
A|------------------------------|------------------------------|
D|-8-7-8-5---------5----------5-|-8-7-8-5---------5----------5-|

G|------------------------------|------------------------------|
D|------------------------------|------------------------------|
A|------------------------------|------------------------------|
D|-8-7-8-5---------5----------5-|-----5-------5-5-5------------|

G|--------------------------------|--------------------------------|
D|--------------------------------|--------------------------------|
A|-13\---------10------10------10-|-13\---------10------10------10-|
D|--------------------------------|--------------------------------|

G|--------------------------------|--------------------------------|
D|--------------------------------|--------------------------------|
A|-13\---------10------10---------|--------------------------------|
D|--------------------------------|--------------------------------|

G|------------------------------|------------------------------|
D|------------------------------|------------------------------|
A|------------------------------|------------------------------|
D|-8-7-8-5---------5----------5-|-8-7-8-5---------5----------5-|

G|------------------------------|------------------------------|
D|------------------------------|------------------------------|
A|------------------------------|------------------------------|
D|-8-7-8-5---------5----------5-|-----5-------5-5-5------------|


[Pre Chorus]

G|------------------------------|------------------------------|
D|------------------------------|------------------------------|
A|------------------------------|------------------------------|
D|-8-7-8-5---------5----------5-|-8-7-8-5---------5----------5-|

G|------------------------------|------------------------------|
D|------------------------------|------------------------------|
A|------------------------------|------------------------------|
D|-8-7-8-5---------5----------5-|-----5-------5-5-5----------5-|

G|------------------------------|------------------------------|
D|------------------------------|------------------------------|
A|------------------------------|------------------------------|
D|-8-7-8-5---------5----------5-|-8-7-8-5---------5----------5-|

G|------------------------------|------------------------------|
D|------------------------------|------------------------------|
A|------------------------------|--------------------------5-4-|
D|-8-7-8-5---------5----------5-|-----5-------5-5-5------------|


[Chorus]

G|-----------------------------------|----------------------5----------|
D|-----------------------------------|------------------4-7------7h8p7-|
A|-3-----------3/--8------------8\---|-5----5---0-5-0-5----------------|
D|-----------5---------------10------|---------------------------------|

G|-----------------------------------|---------------------------------|
D|---------------------5-------------|---------------------------------|
A|-------------------------------5-4-|-3-----------3---3-----------3---|
D|-----5-----5-5-5---------5-5-5-----|-----------5---5-----------5---5-|

G|-----------------------------------|----------------------5----------|
D|-----------------------------------|------------------4-7------3-3-4-|
A|-3-----------3/--8------------8\---|-5----5---0-5-0-5----------------|
D|-----------5---------------10------|---------------------------------|

G|-----------------------------------|---------------------------------|
D|-5-------------------5-------------|---------------------------------|
A|-------------------------------5-4-|-3-----------3---3-----------3---|
D|-----5-----5-5-5---------5-5-5-----|-----------5---5-----------5---5-|

G|-----------------------------------|-------------5-6-7---------------|
D|-----------------------------------|---4-5-7-5-7---------------------|
A|-3------------3---3------------3-4-|-5-------------------------------|
D|------------5---5------------5-----|---------------------------------|


[Post Chorus]

G|------------------------------|------------------------------|
D|------------------------------|------------------------------|
A|------------------------------|------------------------------|
D|-8-7-8-5---------5----------5-|-8-7-8-5---------5----------5-|

G|------------------------------|------------------------------|
D|------------------------------|------------------------------|
A|------------------------------|------------------------------|
D|-8-7-8-5---------5----------5-|-----5-------5-5-5----------5-|

G|------------------------------|------------------------------|
D|------------------------------|------------------------------|
A|------------------------------|------------------------------|
D|-8-7-8-5---------5----------5-|-8-7-8-5---------5----------5-|

G|------------------------------|------------------------------|
D|------------------------------|------------------------------|
A|------------------------------|------------------------------|
D|-8-7-8-5---------5----------5-|-8---7-8---5------------------|


[Bridge]

G|----------------------------------------------|-----------------------------------------------|
D|----------------------------------------------|-----------------------------------------12----|
A|--10----10-10--10-10---10---10---10---10-10---|--10----10-10--10-10---10---10---10---10----13-|
D|----------------------------------------------|-----------------------------------------------| x2


G|-----------------------------------------------|-----------------------------------------------|
D|-----------------------------------------12----|-----------------------------------------12----|
A|--10----10-10--10-10---10---10---10---10----13-|--10----10-10--10-10---10---10---10---10----13-|
D|-----------------------------------------------|-----------------------------------------------|

G|-----------------------------------------------|-----------------------------------------------------------|
D|-----------------------------------------12----|-----12--------12--------12---------12--------17-17--17-17-|
A|--10----10-10--10-10---10---10---10---10----13-|-10-----13-10-----13-10-----13-10------10/-----------------|
D|-----------------------------------------------|-----------------------------------------------------------|


[Verse] (bass enters at 2:33)

G|------------------------------|------------------------------|
D|------------------------------|------------------------------|
A|------------------------------|------------------------------|
D|-8-7-8-5---------5----------5-|-8-7-8-5---------5----------5-|

G|------------------------------|------------------------------|
D|------------------------------|------------------------------|
A|------------------------------|------------------------------|
D|-8-7-8-5---------5----------5-|-----5-------5-5-5----------5-|

G|------------------------------|------------------------------|
D|------------------------------|---------------10--8----------|
A|------------------------------|----------------------10--8\--|
D|-5-5-------------5-5----------|-5-5--------------------------|
                                                                  _
G|------------------------------|------------------------------|   |
D|------------------------------|------------------------------|   |
A|------------------------------|------------------------------|   |
D|-8-7-8-5---------5----------5-|-8-7-8-5---------5----------5-|    \ x2
                                                                    /
G|------------------------------|------------------------------|   |
D|------------------------------|------------------------------|   |
A|------------------------------|------------------------------|   |
D|-8-7-8-5---------5----------5-|-----5-------5-5-5----------5-|  _|

G|------------------------------|----------------------|
D|------------------------------|----------------------|
A|------------------------------|------------------5-4-|
D|-8-7-8-5---------5----------5-|-8-7-8-5--------------|


[Chorus]

G|-----------------------------------|-----------------------5---------|
D|-----------------------------------|-------------------4-7---8p7-8p7-|
A|-3-----------3/--8------------8\---|-5-----5---0-5-0-5---------------|
D|-----------5---------------10------|---------------------------------|

G|-----------------------------------|---------------------------------|
D|---------------------5-------------|---------------------------------|
A|-------------------------------5-4-|-3-----------3---3-----------3---|
D|-----5-----5-5-5---------5-5-5-----|-----------5---5-----------5---5-|

G|-----------------------------------|----------------------------------------------------|
D|-----------------------------------|-12-12---10----12-12---10----12-12-10---------------|
A|-3-----------3/--8------------8/---|------------12------------12----------12-13-12-10-8-|
D|-----------5---------------10------|----------------------------------------------------|

G|-----------------------------------|---------------------------------|
D|---------------------5-------------|---------------------------------|
A|-------------------------------5-4-|-3-----------3---3-----------3---|
D|-----5-----5-5-5---------5-5-5-----|-----------5---5-----------5---5-|

G|-----------------------------------|---------------------------------|
D|-----------------------------------|---------------------------------|
A|-3------------3---3------------3-4-|---------------------------------|
D|------------5---5------------5-----|-0~--------------------------0---|


[Outro]

G|-------------------------------|-------------------------------|
D|-------------------------------|-------------------------------|
A|---------------------10-10--10-|-10\---------------------------|
D|-5\----------------------------|-------------------------------| x2
                                                                    _
G|-------------------------------|-------------------------------|   |
D|-------------------------------|-------------------------------|   |
A|-13-12-13-10-------10-------10-|-13-12-13-10-------10-------10-|   |
D|-------------------------------|-------------------------------|    \ x2
                                                                      /
G|-------------------------------|-------------------------------|   |
D|-------------------------------|-------------------------------|   |
A|-13-12-13-10-------10-------10-|-------10-----10-10-10------10-|   |
D|-------------------------------|-------------------------------|  _|

G|----------------------------------|
D|-------------------------10p8---8-|
A|-10----17\---10----17\--------8---|
D|----------------------------------| x4

G|----------------------------|--------------------|
D|----10h12----10h12----10h12-|----12p10-10p8---8--|
A|-10-------10-------10-------|-10------------8----|
D|----------------------------|--------------------| x4



************************************

| (n) Ghost note
| h   Hammer-on
| p   Pull-off
| \   Slide down
| /   Slide up
| ~   Let ring

************************************

            
            
Suggest correction
Creating personal tab
Creating personal tab
You can edit any tab online and save it as your Personal.

You can edit, replace or remove any tab part or add personal notes – all changes will be seen only by you.

Personal tabs can be accessed anytime from any device, even offline.
Learn more »
Give kudos to tab author, rate the tab!
1 2 3 4 5
comments
print report bad tab
guest
You may want to rate the tab now too:
select rating
Wanna post a correction for this tab? Suggest correction