Oops, an error
Loading. Please wait.
We have an official This Lullaby tab made by UG professional guitarists. Check out the tab »
×
2,500 views 1 this week
2 commentsread comments
1 2 3 4 5
2 more votes to show rating
add to favorites
×
Save as Personal and add changes to this tab that will be seen only by you. Learn more ›
×
You can save this tab as Personal to edit and correct it or add notes. All changes will be seen only by you. Learn more »
launch autoscroll
font size
0
reset
guitar tuner
edit
Autoscroll
slow
fast
+/-
esc
set tempo
stop
Author
Difficulty
This Lullaby
Queens Of Tje Stone Age
Standard Tunning

I invented this bass part. Hope you like it!
Critics, sugestions, email me!

G ----------------------|
D ----------------------| Intro
A --------------------7-|
E -0--7--0--7--0--7-----|


"Where, Oh where have you been my love?" & "My hope is on the horizon"
G ----------------------|
D ----------------------| 2x
A -------2---2----------|
E -0-7-2---2---3-0-7----|


"Are you there over the ocean?" & "And as sure as days come from moments"
G --------------------------------|
D -12--12-------------------------|
A ---------12--12--14--15--15--14-|
E --------------------------------|


"Until return to my.." & "When she'd left.."
G -------------------------|
D -------------------------| 
A ----------------------7--|
E -0--7--2--2--3--0--7-----|

by BaLaSBulletS
andremiche@gmail.com
Portugal

            
            
Suggest correction
Creating personal tab
Creating personal tab
You can edit any tab online and save it as your Personal.

You can edit, replace or remove any tab part or add personal notes – all changes will be seen only by you.

Personal tabs can be accessed anytime from any device, even offline.
Learn more »
Give kudos to tab author, rate the tab!
1 2 3 4 5
comments
print report bad tab
2 comments total.
0 reply
eviledna101 31 Jul 04, 2007 10:55 AM

its cool you wrote a bass part that works and is in key

0 reply
Tsunoyukami 80 Jul 22, 2007 09:38 AM

It sounds fine, but I would rearrange this part:

"Where, Oh where have you been my love?" & "My hope is on the horizon"
G ----------------------|
D ----------------------| 2x
A -------2---2----------|
E -0-7-2---2---3-0-7----|

As:

"Where, Oh where have you been my love?" & "My hope is on the horizon"
G ----------------------|
D ----------------------| 2x
A ---2---2---2-----2----|
E -0---2---2---3-0------|

It has the same notes, but it's much easier to play an requires less movement. You could actually rearrange most of it so that it requires VERY little movement.

guest
You may want to rate the tab now too:
select rating
Wanna post a correction for this tab? Suggest correction