Oops, an error
Loading. Please wait.
We have an official This Lullaby tab made by UG professional guitarists. Check out the tab »
×

This Lullaby tab

version 1
version 1

Whole song

  • This version is capo'd on the 7th fret and may be ... Show more
114,593 views 219 this week
15 commentsread comments
1 2 3 4 5
x 53
add to favorites
×
Save as Personal and add changes to this tab that will be seen only by you. Learn more ›
×
You can save this tab as Personal to edit and correct it or add notes. All changes will be seen only by you. Learn more »
launch autoscroll
font size
0
reset
how to read this tab
guitar tuner
edit
Autoscroll
slow
fast
+/-
esc
set tempo
stop
Author
[Intro]
  
     Em
e||-----------|-----------||-^7-------|-(7)----||
B||o-------8--|-------8--o||-^8-------|-(8)----||
G||-----9-----|----9------||-^9-------|-(9)----||
D||-----------|-9---------||-^9-------|-(9)----||
A||o-7--------|----------o||-^7-------|-(7)----||
E||-----------|-----------||----------|--------||


[Verse]
    
    Em                    B 
e||-----------|----------|----------|-----------|
B||o-------8--|-------8--|----------|-----------|
G||-----9-----|----9-----|-------8--|-------8---|
D||-----------|-9--------|----9-----|----9------|
A||o-7--------|----------|----------|-9---------|
E||-----------|----------|-7--------|-----------|


  B                      Em 
e|----------|-----------|----------|-----------||
B|----------|-----------|-------8--|-------8--o||
G|-------8--|-----------|----9-----|----9------||
D|----9-----|----9------|----------|-9---------||
A|----------|-9-----10--|-7--------|----------o||
E|-7--------|-----------|----------|-----------||


[Bridge]

  G                           D
   
e|-------------|-------------|-------------|-------------|
B|---------12--|---------12--|-------------|-------------|
G|-----12------|-----12------|---------11--|---------11--|
D|-------------|-12----------|-----12------|-----12------|
A|-10----------|-------------|-------------|-12----------|
E|-------------|-------------|-10----------|-------------|


                                   To Coda
  C                         Em
e|-----------|-------------|----------|-7------||
B|-----------|-------------|----------|--------||
G|--------9--|-------------|-------8--|--------||
D|----10-----|-----10------|----9-----|--------||
A|-----------|-10----------|----------|--------||
E|-8---------|---------10--|-7--------|--------||

 End Verse

  Em
e|----------|----------|----------|-----------|
B|-------8--|-------8--|-------8--|-----------|
G|----9-----|----9-----|----9-----|----9------|
D|----------|-9--------|----------|-9---------|
A|-7--------|----------|-7--------|-------10--|
E|----------|----------|----------|-----------|


                            Coda
   Em
e|----------|-7--------|-12-------|-(12)-----||
B|-------8--|----8-----|----------|----------||
G|----9-----|----------|----------|----------||
D|----------|----------|----------|----------||
A|-7--------|-------7--|--7-------|--(7)-----||
E|----------|----------|----------|----------||


[Outro]
  
   Em
e|----------|----------|----------|----------|
B|-------8--|-------8--|----------|----------|
G|----9-----|----9-----|-------8--|-------8--|
D|----------|-9--------|----9-----|----9-----|
A|-7--------|----------|----------|-9--------|
E|----------|----------|-7--------|----------|


  Em
e|----------|----------|-12-------|-(12)----*|
B|-------8--|-------8--|----------|---------*|
G|----9-----|----9-----|----------|---------*|
D|----------|-9--------|----------|---------*|
A|-7--------|----------|--7-------|--(7)----*|
E|----------|----------|----------|---------*|



************************************

| (n)  Ghost note  
| ^    Sweep down

************************************

            
            
Suggest correction
Creating personal tab
Creating personal tab
You can edit any tab online and save it as your Personal.

You can edit, replace or remove any tab part or add personal notes – all changes will be seen only by you.

Personal tabs can be accessed anytime from any device, even offline.
Learn more »
comments
print report bad tab
15 comments total. Showing first comments.
0 reply
Akz 70 Mar 01, 2005 07:00 PM

I think the beginning of the End Verse goes like this:

|----------|----------|----------|-----------|
|-------8--|-------8--|----------|-----------|
|----9-----|----9-----|-------8--|-----------|
|----------|-9--------|----9-----|----9------|
|-7--------|----------|----------|-9-----10--|
|----------|----------|-7--------|-----------|

And rest is like you have written.

+2 reply
feesk8ordie 1,082 Apr 24, 2005 08:00 PM

i love tis song

+3 reply
CLOWNDEACAN 10 Aug 11, 2005 08:00 PM

great, beautiful song, tops most any song on trash mtv and crap, and its just an intro
oh and awsome band, and awsome tab too :) (i gave 5)

guest
You may want to rate the tab now too:
select rating
Wanna post a correction for this tab? Suggest correction