Oops, an error
Loading. Please wait.

Turnin On The Screw tab

version 1
version 1

Whole song

  • Based on many Live versions and a bit of personal ... Show more

Interactive

38,772 views 30 this week
12 commentsread comments
1 2 3 4 5
x 12
add to favorites
×
Save as Personal and add changes to this tab that will be seen only by you. Learn more ›
×
You can save this tab as Personal to edit and correct it or add notes. All changes will be seen only by you. Learn more »
launch autoscroll
font size
0
reset
how to read this tab
guitar tuner
edit
Autoscroll
slow
fast
+/-
esc
set tempo
stop
Author
Difficulty
intermediate
Turnin' On The Screw (by Queens Of The Stone Age)
====================
Tab-Tuning: Standard

                               ### UPDATED the tab on 08/15/2014 ###

                                 Thx for the help and inspiration,
                                 the 'little riff' is now updated.
---------------------\
x = Muted Strum      |
/ = Slide Up         |
\ = Slide Down       |
---------------------/

Ok, I'm sure Verses and Chorus are 99% accurate! [Update 08/14: the filler riff now also]
I tabbed only the Rhythm Guitars, no Solo!

 Verses (And Intro):
e|---9---9---xx9---9---xx9---9---xx9-----9------------|
B|---9---9---xx9---9---xx9---9---xx9-----9------------|
G|---12--10--xx12--10--xx12--10--xx12-10-12~----------| Reapeated through the whole Song...
D|---11--11--xx11--11--xx11--11--xx11----11-----------| 
A|---11--11--xx11--11--xx11--11--xx11----11----x------|
E|---9---9---xx9---9---xx9---9---xx9-----9-----x-9///-|

 This little riff in between:
e|--------------------------------|
B|--------------------------------|
G|--------------------------------|  It's played a few times ... 
D|----2/5---2/5---2/5---2/5---2/5-|
A|-7\5---7\5---7\5---7\5---7\5----|  you have to try to slide very smooth and continuously
E|--------------------------------|

 Chorus:
e|-14---14---xx14---14---xx17-17-xx17---17---xx----------xx---9---9---xx9---9---xx9---9---xx9-----9---------|
B|-14---14---xx14---14---xx17-17-xx17---17---xx----------xx---9---9---xx9---9---xx9---9---xx9-----9---------|
G|-17---15---xx17---15---xx20-18-xx20---18---xx18-16-18\-xx---12--10--xx12--10--xx12--10--xx12-10-12~-------|
D|-16---16---xx16---16---xx19-19-xx19---19---xx----------xx---11--11--xx11--11--xx11--11--xx11----11--------| 
A|-16---16---xx16---16---xx19-19-xx19---19---xx----------xx---11--11--xx11--11--xx11--11--xx11----11--x-----|
E|-14---14---xx14---14---xx17-17-xx17---17---xx----------xx---9---9---xx9---9---xx9---9---xx9-----9---x-9//-|

Hope this is a help for all the QOTSA Fans out there!^^...

            
            
Suggest correction
Creating personal tab
Creating personal tab
You can edit any tab online and save it as your Personal.

You can edit, replace or remove any tab part or add personal notes – all changes will be seen only by you.

Personal tabs can be accessed anytime from any device, even offline.
Learn more »
comments
print report bad tab
12 comments total. Showing first comments.
0 reply
Gaz_m2k5 260 Jun 13, 2007 09:47 AM

e:------------------|
b:-----------------o|
G:------------------| The slidy part ??
D:------------------|
A:-----7s2---7s2---o|
E:--2s7---2s7-------|

Tires your finger out

0 reply
Gaz_m2k5 260 Jun 13, 2007 10:02 AM

Actually it's more

e:------------------|
b:-----------------o|
G:------------------|
D:------------------|
A:--7s1---7s1------o|
E:-----1s7---1s7----|

Tires your finger out

0 reply
k*CMYK 10 Sep 19, 2007 04:40 PM

off course this is in C. how the hell can you do a bar chord in the 17th fret and change it so fast?

guest
You may want to rate the tab now too:
select rating
Wanna post a correction for this tab? Suggest correction