Oops, an error
Loading. Please wait.

Turnin On The Screw tab

version 3
version 3

Whole song

  • Based on many Live versions and a bit of personal ... Show more

Interactive

1,924 views 117 this week
1 commentread comment
1 2 3 4 5
x 3
add to favorites
×
Save as Personal and add changes to this tab that will be seen only by you. Learn more ›
×
You can save this tab as Personal to edit and correct it or add notes. All changes will be seen only by you. Learn more »
launch autoscroll
font size
0
reset
how to read this tab
guitar tuner
edit
Autoscroll
slow
fast
+/-
esc
set tempo
stop
Author
Difficulty
About this tab version
Based on many Live versions and a bit of personal modification at the Solo, this is almost accurate. The only problem lies at the second guitar in the Solo, which is really hard to guess. In the Album version, you cannot hear any of the second guitar's parts. The dead notes are written attached to each other to prevent from strumming not rapidly. Was this info helpful? Yes No
Simple song, awesome riff, but very hard to follow. The main problem is the rhymth, so if you
want to play this right, be sure to listen to it many times. Also, improvisation for the Solo 
and the Slides at the Verses are recommended when perform live
Guit.1: Josh's
Guit.2: Troy's


[Intro]

Guit.1 (strum down up once in the keyboard riff, optional)
e|--xx--|
B|--xx--|
G|--xx--|
D|--xx--|
A|--xx--|
E|--xx--|

Guit.1
e|--xx--x---x--|     |-xx----x---x---x--|   |-----------|
B|--xx-(9)-(9)-|     |-xx---(9)-(9)-(9)-|   |-----------|
G|--xx-12--10--| X3  |-xx---12--10--12--|   |-----------|
D|--xx--9---9--|     |-xx----9---9---9--|   |-----------|
A|--xx-11--11--|     |-xx---11--11--11--|   |-----------|
E|--xx--9---9--|     |-xx----9---9---9--|   |-\\\\/////-|
                                                            
Guit.2
e|-7||||||||||||||||||---7----------|
B|---------------------9------------|
G|----------------------------------|
D|----------------------------------|
A|----------------------------------|
E|----------------------------------|


Guit.1
e|--xx--x---x--|     |-xx----x---x---x-|   |------------|
B|--xx-(9)-(9)-|     |-xx---(9)-(9)-(9)|   |------------|
G|--xx-12--10--| X3  |-xx---12--10--12-|   |------------|
D|--xx--9---9--|     |-xx----9---9---9-|   |------------|
A|--xx-11--11--|     |-xx---11--11--11-|   |------------|
E|--xx--9---9--|     |-xx----9---9---9-|   |-////\\\\\--|
                                                            
Guit.2
e|-7||||||||||||||||||---7----------|
B|---------------------9------------|
G|----------------------------------|
D|----------------------------------|
A|----------------------------------|
E|----------------------------------|


Guit.1
e|--xx--x---x--|     |-xx----x---x---x--|    |--xxxx--|
B|--xx-(9)-(9)-|     |-xx---(9)-(9)-(9)-|    |--xxxx--|
G|--xx-12--10--| X3  |-xx---12--10--12--|    |--xxxx--|
D|--xx--9---9--|     |-xx----9---9---9--|    |--xxxx--|
A|--xx-11--11--|     |-xx---11--11--11--|    |--xxxx--|
E|--xx--9---9--|     |-xx----9---9---9--|    |--xxxx--|
                                                            
Guit.2
e|-7||||||||||||||||||---7----------|
B|---------------------9------------|
G|----------------------------------|
D|----------------------------------|
A|----------------------------------|
E|----------------------------------|


[Verse 1]

Guit.1
You got a question? Please don't ask it,
e|--xx--x---x--|     |-xx----x---x---x-|   |------------|
B|--xx-(9)-(9)-|     |-xx---(9)-(9)-(9)|   |------------|
G|--xx-12--10--| X3  |-xx---12--10--12-|   |------------|
D|--xx--9---9--|     |-xx----9---9---9-|   |------------|
A|--xx-11--11--|     |-xx---11--11--11-|   |------------|
E|--xx--9---9--|     |-xx----9---9---9-|   |-////\\\\\--|
                                                            
Guit.2
e|-7||||||||||||||||||---7----------|
B|---------------------9------------|
G|----------------------------------|
D|----------------------------------|
A|----------------------------------|
E|----------------------------------|


Guit.1
It puts the lotion in the basket,
e|--xx--x---x--|     |-xx----x---x---x--|   |-----------|
B|--xx-(9)-(9)-|     |-xx---(9)-(9)-(9)-|   |-----------|
G|--xx-12--10--| X3  |-xx---12--10--12--|   |-----------|
D|--xx--9---9--|     |-xx----9---9---9--|   |-----------|
A|--xx-11--11--|     |-xx---11--11--11--|   |-----------|
E|--xx--9---9--|     |-xx----9---9---9--|   |-\\\\/////-|
                                                            
Guit.2
e|-7||||||||||||||||||---7----------|
B|---------------------9------------|
G|----------------------------------|
D|----------------------------------|
A|----------------------------------|
E|----------------------------------|


Guit.1
You say bigger's better but bigger's thicker,
e|--xx--x---x--|     |-xx----x---x---x--|    |--xxxx--|
B|--xx-(9)-(9)-|     |-xx---(9)-(9)-(9)-|    |--xxxx--|
G|--xx-12--10--| X3  |-xx---12--10--12--|    |--xxxx--|
D|--xx--9---9--|     |-xx----9---9---9--|    |--xxxx--|
A|--xx-11--11--|     |-xx---11--11--11--|    |--xxxx--|
E|--xx--9---9--|     |-xx----9---9---9--|    |--xxxx--|
                                                               
Guit.2 
e|-7||||||||||||||||||---7----------|
B|---------------------9------------|
G|----------------------------------|
D|----------------------------------|
A|----------------------------------|
E|----------------------------------|

Guit.1
White boy dressed up like a figure,
e|--xx--x---x--|     |-xx----x---x---x--|    |--xx--|
B|--xx-(9)-(9)-|     |-xx---(9)-(9)-(9)-|    |--xx--|
G|--xx-12--10--| X3  |-xx---12--10--12--|    |--xx--|
D|--xx--9---9--|     |-xx----9---9---9--|    |--xx--|
A|--xx-11--11--|     |-xx---11--11--11--|    |--xx--|
E|--xx--9---9--|     |-xx----9---9---9--|    |--xx--|
                                                               
Guit.2 
e|-7||||||||||||||||||---7----------|
B|---------------------9------------|
G|----------------------------------|
D|----------------------------------|
A|----------------------------------|
E|----------------------------------|


[Bridge]

Guit.1
Drawn inside a toilet on the wall,
e|---x----x--xx-|       |---x----x----xx-|       |---x----x----x--|
B|-(14)-(14)-xx-|       |-(17)-(17)---xx-|       |-(12)-(12)-(12)-|
G|--17---15--xx-|  X2   |--22---20----xx-|   X2  |--15---13---15--|
D|--14---14--xx-|       |--17---17----xx-|       |--12---12---12--|
A|--16---16--xx-|       |--19---19----xx-|       |--14---14---14--|
E|--14---14--xx-|       |--17---17----xx-|       |--12---12---12--|
   
Guit.2
e|--------------|       |-----------------|      |----------------|
B|-//14-//14----|       |-//17-//17\16----|      |---11-9-11------|
G|-----------15-|       |--------------18-|      |----------------|
D|--------------|       |-----------------|      |----------------|
A|--------------|       |-----------------|      |----------------|
E|--------------|       |-----------------|      |----------------|


Guit.1
e|--xx--x---x--|     |-xx----x---x---x--|    |--xxx--|
B|--xx-(9)-(9)-|     |-xx---(9)-(9)-(9)-|    |--xxx--|
G|--xx-12--10--| X3  |-xx---12--10--12--|    |--xxx--|
D|--xx--9---9--|     |-xx----9---9---9--|    |--xxx--|
A|--xx-11--11--|     |-xx---11--11--11--|    |--xxx--|
E|--xx--9---9--|     |-xx----9---9---9--|    |--xxx--|
                                                               
Guit.2 
e|-7||||||||||||||||||---7----------|
B|---------------------9------------|
G|----------------------------------|
D|----------------------------------|
A|----------------------------------|
E|----------------------------------|


Guit.1
The world is round,
My square don't fit at all,
e|---x----x--xx-|       |---x----x----xx-|       |---x----x----x--|
B|-(14)-(14)-xx-|       |-(17)-(17)---xx-|       |-(12)-(12)-(12)-|
G|--17---15--xx-|  X2   |--22---20----xx-|   X2  |--15---13---15--|
D|--14---14--xx-|       |--17---17----xx-|       |--12---12---12--|
A|--16---16--xx-|       |--19---19----xx-|       |--14---14---14--|
E|--14---14--xx-|       |--17---17----xx-|       |--12---12---12--|
   
Guit.2
e|--------------|       |-----------------|      |----------------|
B|-//14-//14----|       |-//17-//17\16----|      |---11-9-11------|
G|-----------15-|       |--------------18-|      |----------------|
D|--------------|       |-----------------|      |----------------|
A|--------------|       |-----------------|      |----------------|
E|--------------|       |-----------------|      |----------------|


Guit.1
e|--xx--x---x--|     |-xx----x---x---x-|   |------------|
B|--xx-(9)-(9)-|     |-xx---(9)-(9)-(9)|   |------------|
G|--xx-12--10--| X3  |-xx---12--10--12-|   |------------|
D|--xx--9---9--|     |-xx----9---9---9-|   |------------|
A|--xx-11--11--|     |-xx---11--11--11-|   |------------|
E|--xx--9---9--|     |-xx----9---9---9-|   |-////\\\\\--|
                                                                   X2                                       
Guit.2 
e|-7||||||||||||||||||---7----------|
B|---------------------9------------|
G|----------------------------------|
D|----------------------------------|
A|----------------------------------|
E|----------------------------------|


[Chorus]

Both Guits
e|----------------|        |----------|
B|----------------|        |----------|
G|----------------|  X3    |----------|
D|----------------|        |----------|
A|--------7///11--|        |----------|
E|-12\\\9---------|        |--12\\\\--|


Guit.1
e|--xx--x---x--|     |-xx----x---x---x--|   |-----------|
B|--xx-(9)-(9)-|     |-xx---(9)-(9)-(9)-|   |-----------|
G|--xx-12--10--| X3  |-xx---12--10--12--|   |-----------|
D|--xx--9---9--|     |-xx----9---9---9--|   |-----------|
A|--xx-11--11--|     |-xx---11--11--11--|   |-----------|
E|--xx--9---9--|     |-xx----9---9---9--|   |-\\\\/////-|
                                                              X2           
Guit.2
e|-7||||||||||||||||||---7----------|
B|---------------------9------------|
G|----------------------------------|
D|----------------------------------|
A|----------------------------------|
E|----------------------------------|


[Verse 2]

Guit.1
They say those who can't just instruct others,
e|--xx--x---x--|     |-xx----x---x---x-|   |------------|
B|--xx-(9)-(9)-|     |-xx---(9)-(9)-(9)|   |------------|
G|--xx-12--10--| X3  |-xx---12--10--12-|   |------------|
D|--xx--9---9--|     |-xx----9---9---9-|   |------------|
A|--xx-11--11--|     |-xx---11--11--11-|   |------------|
E|--xx--9---9--|     |-xx----9---9---9-|   |-////\\\\\--|
                                                            
Guit.2
e|-7||||||||||||||||||---7----------|
B|---------------------9------------|
G|----------------------------------|
D|----------------------------------|
A|----------------------------------|
E|----------------------------------|


Guit.1
And act like victims or jilted lovers,
e|--xx--x---x--|     |-xx----x---x---x--|   |----------xxx-|
B|--xx-(9)-(9)-|     |-xx---(9)-(9)-(9)-|   |----------xxx-|
G|--xx-12--10--| X3  |-xx---12--10--12--|   |----------xxx-|
D|--xx--9---9--|     |-xx----9---9---9--|   |----------xxx-|
A|--xx-11--11--|     |-xx---11--11--11--|   |----------xxx-|
E|--xx--9---9--|     |-xx----9---9---9--|   |-\\\\////-xxx-|
                                                            
Guit.2
e|-7||||||||||||||||||---7----------|
B|---------------------9------------|
G|----------------------------------|
D|----------------------------------|
A|----------------------------------|
E|----------------------------------|


Guit.1
You can't lose it if you never had it,
e|--xx--x---x--|     |-xx----x---x---x--|    |--xxxx--|
B|--xx-(9)-(9)-|     |-xx---(9)-(9)-(9)-|    |--xxxx--|
G|--xx-12--10--| X3  |-xx---12--10--12--|    |--xxxx--|
D|--xx--9---9--|     |-xx----9---9---9--|    |--xxxx--|
A|--xx-11--11--|     |-xx---11--11--11--|    |--xxxx--|
E|--xx--9---9--|     |-xx----9---9---9--|    |--xxxx--|
                                           
Guit.2 
e|-7||||||||||||||||||---7----------|
B|---------------------9------------|
G|----------------------------------|
D|----------------------------------|
A|----------------------------------|
E|----------------------------------|

Guit.1
Disappear man, Do some magic,
e|--xx--x---x--|     |-xx----x---x---x--|    |--xx--|
B|--xx-(9)-(9)-|     |-xx---(9)-(9)-(9)-|    |--xx--|
G|--xx-12--10--| X3  |-xx---12--10--12--|    |--xx--|
D|--xx--9---9--|     |-xx----9---9---9--|    |--xx--|
A|--xx-11--11--|     |-xx---11--11--11--|    |--xx--|
E|--xx--9---9--|     |-xx----9---9---9--|    |--xx--|
                                                              
Guit.2 
e|-7||||||||||||||||||---7----------|
B|---------------------9------------|
G|----------------------------------|
D|----------------------------------|
A|----------------------------------|
E|----------------------------------|


[Bridge]

Guit.1
You want a reason? How's about "Because"?
e|---x----x--xx-|       |---x----x----xx-|       |---x----x----x--|
B|-(14)-(14)-xx-|       |-(17)-(17)---xx-|       |-(12)-(12)-(12)-|
G|--17---15--xx-|  X2   |--22---20----xx-|   X2  |--15---13---15--|
D|--14---14--xx-|       |--17---17----xx-|       |--12---12---12--|
A|--16---16--xx-|       |--19---19----xx-|       |--14---14---14--|
E|--14---14--xx-|       |--17---17----xx-|       |--12---12---12--|
   
Guit.2
e|--------------|       |-----------------|      |----------------|
B|-//14-//14----|       |-//17-//17\16----|      |---11-9-11------|
G|-----------15-|       |--------------18-|      |----------------|
D|--------------|       |-----------------|      |----------------|
A|--------------|       |-----------------|      |----------------|
E|--------------|       |-----------------|      |----------------|


Guit.1
e|--xx--x---x--|     |-xx----x---x---x--|    |--xxx--|
B|--xx-(9)-(9)-|     |-xx---(9)-(9)-(9)-|    |--xxx--|
G|--xx-12--10--| X3  |-xx---12--10--12--|    |--xxx--|
D|--xx--9---9--|     |-xx----9---9---9--|    |--xxx--|
A|--xx-11--11--|     |-xx---11--11--11--|    |--xxx--|
E|--xx--9---9--|     |-xx----9---9---9--|    |--xxx--|
                                          
Guit.2 
e|-7||||||||||||||||||---7----------|
B|---------------------9------------|
G|----------------------------------|
D|----------------------------------|
A|----------------------------------|
E|----------------------------------|

Guit.1
You ain't a has been if you never was.
e|---x----x--xx-|       |---x----x----xx-|       |---x----x----x--|
B|-(14)-(14)-xx-|       |-(17)-(17)---xx-|       |-(12)-(12)-(12)-|
G|--17---15--xx-|  X2   |--22---20----xx-|   X2  |--15---13---15--|
D|--14---14--xx-|       |--17---17----xx-|       |--12---12---12--|
A|--16---16--xx-|       |--19---19----xx-|       |--14---14---14--|
E|--14---14--xx-|       |--17---17----xx-|       |--12---12---12--|
   
Guit.2
e|--------------|       |-----------------|      |----------------|
B|-//14-//14----|       |-//17-//17\16----|      |---11-9-11------|
G|-----------15-|       |--------------18-|      |----------------|
D|--------------|       |-----------------|      |----------------|
A|--------------|       |-----------------|      |----------------|
E|--------------|       |-----------------|      |----------------|


Guit.1
e|--xx--x---x--|     |-xx----x---x---x-|   |------------|
B|--xx-(9)-(9)-|     |-xx---(9)-(9)-(9)|   |------------|
G|--xx-12--10--| X3  |-xx---12--10--12-|   |------------|
D|--xx--9---9--|     |-xx----9---9---9-|   |------------|
A|--xx-11--11--|     |-xx---11--11--11-|   |------------|
E|--xx--9---9--|     |-xx----9---9---9-|   |-////\\\\\--|

Guit.2 
e|-7||||||||||||||||||---7----------|
B|---------------------9------------|
G|----------------------------------|
D|----------------------------------|
A|----------------------------------|
E|----------------------------------|

[Solo] (Notes: Guit.2's part might be a bit confusing)
Guit.1
I sound like this,
e|-------------------------------------|
B|-------------------------------------|
G|-------------------------------------|
D|-------------------------------------|
A|-------------------------------------|
E|-7b9-7b9-x-7b9-7b9-x-7b9|||-7-\\2-0--|

Guit.2
e|---------------------------|
B|---------------------------|
G|-10-10--10--9--8\\-----10--|
D|--x--x---x--x--x\\---2--x--|
A|--8--8---8--7--6\\---2--8--|
E|--9--9---9--8--7\\---0--9--|

Guit.1
e|------------------------------------------------------------------------|
B|-------9------------12-12-b14--b14|||-------------12--14----------------|
G|------------10------------------------9-----11h13--------11h13p11-9h11--|
D|--9-11---11----(11)---------------------11------------------------------|
A|------------------------------------------------------------------------|
E|------------------------------------------------------------------------|

Guit.2
e|----------------------------------------------|
B|----------------------------------------------|
G|-10-10--10--9--8\\----------------6-6--8-8----|
D|--x--x---x--x--x\\---2---4--4--4--x-x--x-x----|
A|--8--8---8--7--6\\---2---4--4--4--4-4--6-6----|
E|--9--9---9--8--7\\---0---2--2--2--5-5--7-7----|


Guit.1
e|---------------------14b16--------------------------|
B|-12-14-16br18-14|-12-------12|||-14b1r6-14----------|
G|-------------------------------------------12b13||--|
D|----------------------------------------------------|
A|----------------------------------------------------|
E|----------------------------------------------------|

Guit.2
e|---------------------------|
B|---------------------------|
G|-10-10--10--9--8\\---------|
D|--x--x---x--x--x\\---2-----|
A|--8--8---8--7--6\\---2-----|
E|--9--9---9--8--7\\---0-----|


Guit.1
e|--------------------------------------|
B|--------------------------------------|
G|--------------------------------------|
D|-11-br14-11|||-9----------------------|
A|------------------9-7--------------8--|
E|----------------------5-4--2(or 0)----|

Guit.2
e|--------------------|
B|--------------------|
G|----------6-6--8-8--|
D|-4--4--4--x-x--x-x--|
A|-4--4--4--4-4--6-6--|
E|-2--2--2--5-5--7-7--|


Guit.1
e|--xx--x---x--|     |-xx----x---x---x-|   |------------|
B|--xx-(9)-(9)-|     |-xx---(9)-(9)-(9)|   |------------|
G|--xx-12--10--| X3  |-xx---12--10--12-|   |------------|
D|--xx--9---9--|     |-xx----9---9---9-|   |------------|
A|--xx-11--11--|     |-xx---11--11--11-|   |------------|
E|--xx--9---9--|     |-xx----9---9---9-|   |-////\\\\\--|

Guit.2 
e|-7||||||||||||||||||---7----------|
B|---------------------9------------|
G|----------------------------------|
D|----------------------------------|
A|----------------------------------|
E|----------------------------------|

[Chorus] (longer than the last, so i'm not going to bother counting)
Both Guits
e|----------------|       
B|----------------|       
G|----------------|    R
D|----------------|        
A|--------7///11--|        
E|-12\\\9---------|        


Guit.1
e|--xx--x---x--|     |-xx----x---x---x--|    |--xxxx--|
B|--xx-(9)-(9)-|     |-xx---(9)-(9)-(9)-|    |--xxxx--|
G|--xx-12--10--| X3  |-xx---12--10--12--|    |--xxxx--|
D|--xx--9---9--|     |-xx----9---9---9--|    |--xxxx--|
A|--xx-11--11--|     |-xx---11--11--11--|    |--xxxx--|
E|--xx--9---9--|     |-xx----9---9---9--|    |--xxxx--|
                                                               
Guit.2 
e|-7||||||||||||||||||---7----------|
B|---------------------9------------|
G|----------------------------------|
D|----------------------------------|
A|----------------------------------|
E|----------------------------------|


Guit.1
e|--xx--x---x--|     |-xx----x---x---x-|   |------------|
B|--xx-(9)-(9)-|     |-xx---(9)-(9)-(9)|   |------------|
G|--xx-12--10--| X3  |-xx---12--10--12-|   |------------|
D|--xx--9---9--|     |-xx----9---9---9-|   |------------|
A|--xx-11--11--|     |-xx---11--11--11-|   |------------|
E|--xx--9---9--|     |-xx----9---9---9-|   |-////\\\\\--|

Guit.2 
e|-7||||||||||||||||||---7----------|
B|---------------------9------------|
G|----------------------------------|
D|----------------------------------|
A|----------------------------------|
E|----------------------------------|


[Verse 3]

Guit.1
Scared to say what is your passion,
e|--xx--x---x--|     |-xx----x---x---x--|   |-----------|
B|--xx-(9)-(9)-|     |-xx---(9)-(9)-(9)-|   |-----------|
G|--xx-12--10--| X3  |-xx---12--10--12--|   |-----------|
D|--xx--9---9--|     |-xx----9---9---9--|   |-----------|
A|--xx-11--11--|     |-xx---11--11--11--|   |-----------|
E|--xx--9---9--|     |-xx----9---9---9--|   |-\\\\/////-|
                                                            
Guit.2
e|-7||||||||||||||||||---7----------|
B|---------------------9------------|
G|----------------------------------|
D|----------------------------------|
A|----------------------------------|
E|----------------------------------|


Guit.1
So slag it all,
Bitter's in fashion,
Fear of failure's all you've started,
e|--xx--x---x--|     |-xx----x---x---x--|    |--xxxx--|
B|--xx-(9)-(9)-|     |-xx---(9)-(9)-(9)-|    |--xxxx--|
G|--xx-12--10--| X3  |-xx---12--10--12--|    |--xxxx--|
D|--xx--9---9--|     |-xx----9---9---9--|    |--xxxx--|
A|--xx-11--11--|     |-xx---11--11--11--|    |--xxxx--|
E|--xx--9---9--|     |-xx----9---9---9--|    |--xxxx--|
                                                             X2             
Guit.2 
e|-7||||||||||||||||||---7----------|
B|---------------------9------------|
G|----------------------------------|
D|----------------------------------|
A|----------------------------------|
E|----------------------------------|


Guit.1
The jury is in, verdict:
Retarded,
e|--xx--x---x--|     |-xx----x---x---x-|   |------------|
B|--xx-(9)-(9)-|     |-xx---(9)-(9)-(9)|   |------------|
G|--xx-12--10--| X3  |-xx---12--10--12-|   |------------|
D|--xx--9---9--|     |-xx----9---9---9-|   |------------|
A|--xx-11--11--|     |-xx---11--11--11-|   |------------|
E|--xx--9---9--|     |-xx----9---9---9-|   |-////\\\\\--|

Guit.2 
e|-7||||||||||||||||||---7----------|
B|---------------------9------------|
G|----------------------------------|
D|----------------------------------|
A|----------------------------------|
E|----------------------------------|


[Outro] (almost same as the Bridge)
Guit.1
I'm so tired, I'm wired too,
e|---x----x--xx-|       |---x----x----xx-|       |---x----x----x--|
B|-(14)-(14)-xx-|       |-(17)-(17)---xx-|       |-(12)-(12)-(12)-|
G|--17---15--xx-|  X2   |--22---20----xx-|   X2  |--15---13---15--|
D|--14---14--xx-|       |--17---17----xx-|       |--12---12---12--|
A|--16---16--xx-|       |--19---19----xx-|       |--14---14---14--|
E|--14---14--xx-|       |--17---17----xx-|       |--12---12---12--|
   
Guit.2
e|--------------|       |-----------------|      |----------------|
B|-//14-//14----|       |-//17-//17\16----|      |---11-9-11------|
G|-----------15-|       |--------------18-|      |----------------|
D|--------------|       |-----------------|      |----------------|
A|--------------|       |-----------------|      |----------------|
E|--------------|       |-----------------|      |----------------|


Guit.1
e|--xx--x---x--|     |-xx----x---x---x--|    |--xxx--|
B|--xx-(9)-(9)-|     |-xx---(9)-(9)-(9)-|    |--xxx--|
G|--xx-12--10--| X3  |-xx---12--10--12--|    |--xxx--|
D|--xx--9---9--|     |-xx----9---9---9--|    |--xxx--|
A|--xx-11--11--|     |-xx---11--11--11--|    |--xxx--|
E|--xx--9---9--|     |-xx----9---9---9--|    |--xxx--|

Guit.2 
e|-7||||||||||||||||||---7----------|
B|---------------------9------------|
G|----------------------------------|
D|----------------------------------|
A|----------------------------------|
E|----------------------------------|

Guit.1
I'm a mess,
I guess,
I'm turning on the screw. 
e|---x----x--xx-|       |---x----x----xx-|       |---x----x----x--|
B|-(14)-(14)-xx-|       |-(17)-(17)---xx-|       |-(12)-(12)-(12)-|
G|--17---15--xx-|  X2   |--22---20----xx-|   X2  |--15---13---15--|
D|--14---14--xx-|       |--17---17----xx-|       |--12---12---12--|
A|--16---16--xx-|       |--19---19----xx-|       |--14---14---14--|
E|--14---14--xx-|       |--17---17----xx-|       |--12---12---12--|
   
Guit.2
e|--------------|       |-----------------|      |----------------|
B|-//14-//14----|       |-//17-//17\16----|      |---11-9-11------|
G|-----------15-|       |--------------18-|      |----------------|
D|--------------|       |-----------------|      |----------------|
A|--------------|       |-----------------|      |----------------|
E|--------------|       |-----------------|      |----------------|


************************************

| x   Dead note
| g   Grace note
| (n) Ghost note
| h   Hammer-on
| p   Pull-off
| r   Release
| >   Accented note
| t   Tapping
| b   Bend
| br  Bend release
| pb  Pre-bend
| pbr Pre-bend release
| /   Slide up
| \   Slide down
| ~   Vibrato
| s   Slap
| P   Pop
| PM  Palm mute
| TR  Trill
| N   Tremolo

************************************

            
            
Suggest correction
Creating personal tab
Creating personal tab
You can edit any tab online and save it as your Personal.

You can edit, replace or remove any tab part or add personal notes – all changes will be seen only by you.

Personal tabs can be accessed anytime from any device, even offline.
Learn more »
Give kudos to tab author, rate the tab!
1 2 3 4 5
comments
print report bad tab
1 comment total.
0 reply
arvidwanghamm1 10 Aug 21, 2016 07:18 AM

bravo, man!

guest
You may want to rate the tab now too:
select rating
Wanna post a correction for this tab? Suggest correction